Hendrix Jimi - Can You See Me Chords & Tabs

 

Can You See Me Chords & Tabs

Hendrix Jimi Chords & Tabs

Version: 1 Type: Bass Tab 0 ratings
1 star 2 stars 3 stars 4 stars 5 stars
comments

Can You See Me Bass Tab

Author/Artist: Jimi Hendrix	
Title: Can You See Me
Album: Are You Experienced?
Transcribed by: Eleanor Mollett	
Email: ellie_mollett@hotmail.com

**I only tab for Guitar Tab Universe! - www.guitartabs.cc**


G|---------------------------|
D|---------------------------|
A|----0-------2--0-----------|
E|--2---2--0-------2--0---2--|

G|-----------------------------------------------------|
D|-----------------------------------------------------|
A|--2--2-0--2-0-2-0--2-2-0-2-0-2-0-----0--------0------|  x 2
E|----------------------------------2----2-0--2---2--0-|

G|-----------------------------------------------------------|
D|-----0-----2--0--------------0--2--0-----------------------|
A|--2-----2--------2--0-----2-----------2--0-0-0-0-0-0-0-0-2-|
E|-----------------------------------------------------------|

G|-----------------------------------------------------|
D|-----------------------------------------------------|
A|--2--2-0--2-0-2-0--2-2-0-2-0-2-0-----0--------0------|  x 2
E|----------------------------------2----2-0--2---2--0-|
[ Tab from: http://www.guitartabs.cc/tabs/h/hendrix_jimi/can_you_see_me_btab.html ]
G|-----------------------------------------------------------|
D|-----0-----2--0--------------0--2--0-----------------------|
A|--2-----2--------2--0-----2-----------2--0-0-0-0-0-0-0-0-2-|
E|-----------------------------------------------------------|

G|-------------------------------------|
D|-------------------------------------|
A|--2-2-2-2-2-2-2-2-2-2-2-2-2-2-2-2----|  (This same note is played straight for some time)
E|-------------------------------------|

G|-----------------------------------------------------|
D|-----------------------------------------------------|
A|--2--2-0--2-0-2-0--2-2-0-2-0-2-0-----0--------0------|  x 2
E|----------------------------------2----2-0--2---2--0-|

G|-----------------------------------------------------------|
D|-----0-----2--0--------------0--2--0-----------------------|
A|--2-----2--------2--0-----2-----------2--0-0-0-0-0-0-0-0-2-|
E|-----------------------------------------------------------|

G|-----------------------------------------------------|
D|-----------------------------------------------------|
A|--2--2-0--2-0-2-0--2-2-0-2-0-2-0-----0--------0------|  x 3
E|----------------------------------2----2-0--2---2--0-|


**I only tab for Guitar Tab Universe! - www.guitartabs.cc**
Comments