Hendrix Jimi - Bold As Love Solo Chords & Tabs

 

Bold As Love Solo Chords & Tabs

Hendrix Jimi Chords & Tabs

Version: 1 Type: Tab 1 rating
1 star 2 stars 3 stars 4 stars 5 stars
comments

Bold As Love Solo Tab

Song: Bold as Love (solo)
Album: Bold as Love
Artist: Jimi Hendrix
Tabbed by: Will Bauman

	Key: h=hammer on	    p=pull off
	     /=slide up	    \=slide down
	     b=bend up/down   X=mute string

tune guitar half step down.

e|---------------------------------------------------------------------
B|-8b10---8b10b8-------------------------------------------------------
G|--------------9-7-8/9---9b11---11b9---------------------6-11\9-6-----
D|-----------------------------------9b11-11b9-7-9-7—9b11----------9---
A|---------------------------------------------------------------------
E|---------------------------------------------------------------------

e|---------------------------------------------------------------------
B|---------------------------------------------------------------------
G|---------------------------------------------------------------------
D|-9b10b9-7-------------------9b11---b9---9b11b9-7----7-7--------------
A|----------9---999-9/10-10------------------------9---9—-9/10-10-10---
E|---------------------------------------------------------------------

e|--------------------------8-10-12-12---12b14---12b14---10---12b14----
B|---------------7-8/10-8-10-------------------------------------------
G|-----------6h10------------------------------------------------------
D|----7-/9\7-----------------------------------------------------------
A|-10------------------------------------------------------------------
E|---------------------------------------------------------------------

e|-12b14b12-------------------------14b16---12b14b12---12b14b12--------
B|-----------10---12b14-10-12—12/14----------------------------10---12-
G|---------------------------------------------------------------------
D|---------------------------------------------------------------------
A|---------------------------------------------------------------------
E|---------------------------------------------------------------------

e|------------------------------12-14-15b17---17b15p12-14---12h14p12---
B|-12b14b12-----10--------------------------------------------------12-
G|---------11-----11-11/12-12------------------------------------------
D|---------------------------------------------------------------------
A|---------------------------------------------------------------------
E|---------------------------------------------------------------------
										 Drum solo…
e|------------------------------------------------------5--------------
B|-12b14---14b16\---------------------------------------5--------------
G|------------------------------------------7-7-7-7-7-7-6--------------
D|----------------------7---7-7-7-7-7-7-7---7-7-7-7-7-7-7--------------
A|----------------555-------5-5-5-5-5-5-7---5-5-5-5-5-5-7--------------
E|-------------------5------------------5---------------5--------------





e|---------------------------------------------------------------------
A|-12b14—--12b14b12p10--------------------------------12b14-12b14b12p10
G|--------------------13-13—13b15-13b15-13-11-11-13--------------------
D|---------------------------------------------------------------------
A|---------------------------------------------------------------------
E|---------------------------------------------------------------------

e|-------------------------------12b13-12b13-b12p10-12-12-12b14b12-----
B|---------------12-12-12-----------------------------------------12-10
G|-13-13---13b15---------13-13-13--------------------------------------
D|---------------------------------------------------------------------
A|---------------------------------------------------------------------
E|---------------------------------------------------------------------

e|-13-13-15b17---15b17-15------------------------------15/19---17b19---
B|--------------------------12b13---15-15b17—b15p13--------------------
G|-------------------------------------------------14------------------
D|---------------------------------------------------------------------
A|---------------------------------------------------------------------
E|---------------------------------------------------------------------
[ Tab from: http://www.guitartabs.cc/tabs/h/hendrix_jimi/bold_as_love_solo_tab.html ]
e|-17b19-15h17p15-12---------------------------------------------------
B|-------------------15b17-15b17—b15p13—15-15---15b17-15b17b15p13-13---
G|---------------------------------------------------------------------
D|---------------------------------------------------------------------
A|---------------------------------------------------------------------
E|---------------------------------------------------------------------
								 Repeat 2X
e|-15/19----------------------------------------|----------------------
B|----------------------------------------------|+---------------------
G|----------------------------------------------|-------------10-------
D|----------------------------------------------|-------11-------11----
A|----------------------------------------------|+---11----11-------11-
E|----------------------------------------------|--9-------------------
			
e|--------------------------------------------------------|------------
B|-------------------------------------------------------+|------------
G|------------5-------6-------6---------------------------|------------
D|-11\----6-----6---6/--8---8---8---8-----9--------10-----|------------
A|------6---6-----6-------8-------8-----9---9---10----10-+|------------
E|----4-------------------------------7-------8-----------|------------
   >
e|-9X------------9-----9---------12p9--------9-----9-----------999999—
B|-12b14-12-12b14-12b14------9h12-----9-12b14-12b14-12b14-12b14--------
G|----------------------11b13------------------------------------------
D|---------------------------------------------------------------------
A|---------------------------------------------------------------------
E|---------------------------------------------------------------------

e|-9-------------------14b16-14------14b16-14---14b16-14---14b16-14----
B|-------12b14b12p9-999-----------/14--------/14--------/14--------/14-
G|---------------------------------------------------------------------
D|---------------------------------------------------------------------
A|---------------------------------------------------------------------
E|---------------------------------------------------------------------


e|---------------------------------------------------------------------
B|----12b14b12p9-----9-12-9--------------------------------------------
G|--------------11b13------11-9-11p9-----------------------------------
D|----------------------------------11-----------9X-12b14-11---9-11-9—-
A|------------------------------------11-9----/11X---------------------
E|----------------------------------------12-9-------------------------

e|---------------------------------------------------------------------
B|---------------------------------------------------------------------
G|---------------------------------------------------------------------
D|---9-11b1311p9--------9-11-14-13--13-11--11-10-----------------------
A|-11------------11---11-----------------14--------11-9------11-9------
E|------------------------------------------------------12-9-----------

e|----------9-9--9-9---------------------------------------------------
B|------9-12-------12b14—12b14b12p9-----9-12-9-------------------------
G|-11b13---------------------------11b13------11-9-11p9----------------
D|-----------------------------------------------------11--------------
A|-------------------------------------------------------11/15-15-15---
E|---------------------------------------------------------------------
	    (triplets)
e|------------1616-161616-161616-161616------14-14-141414-141414-141414
B|---------19b21--------------------------17b19------------------------
G|---------------------------------------------------------------------
D|---------------------------------------------------------------------
A|-15X—15X-------------------------------------------------------------
E|---------------------------------------------------------------------
										  fade out.
e|-14/18-18-181818-181818-181818-------16-16-161616-161616-161616------
B|----------------------------------19b21------------------------------
G|---------------------------------------------------------------------
D|---------------------------------------------------------------------
A|---------------------------------------------------------------------
E|---------------------------------------------------------------------


Comments