Hendrix Jimi - All Along The Watchtower Chords & Tabs

 

All Along The Watchtower Chords & Tabs

Hendrix Jimi Chords & Tabs

Version: 1 Type: Tab 10 ratings
1 star 2 stars 3 stars 4 stars 5 stars
comments

All Along The Watchtower Tab

                    Jimi Hendrix - All Along the Watchtower                             
                                  by digiti


                                                                                
D#||------------------|------------------|------------------|------------------|
A#||------------------|------------------|------------------|------------------|
F#||------------------|------------------|------------------|------------------|
C#||------------------|------------------|------------------|------------------|
G#||------------------|------------------|------------------|------------------|
D#||------------------|------------------|------------------|------------------|


                                                        
------------------------|------------------------------|
----------------12--14b-|--14b-14b-14~-----14r-12------|
------------13----------|--------------------------13--|
------------------------|------------------------------|
------------------------|------------------------------|
------------------------|------------------------------|


                                                               
--------------------------------|-----------------------------|
--------------------------------|-----------------------------|
--11--11--11----11/9-----9--11--|--11b-11--11~-----11r-9------|
-------------------9/11---------|-------------------------11--|
--------------------------------|-----------------------------|
--------------------------------|-----------------------------|


                                                         
--------------------------|-----------------------------|
--11h9----12b-------10b---|-----------------------------|
-------9------------------|---------11h9----------------|
--------------------------|--------------9--------------|
--------------------------|-----11----------9-9--7-7----|
--------------------------|--9--------------------------|


                                                     
----------------------------|-----------------------|
----------------------------|-------7h5-------------|
----------------4h6h4-------|--------------------2--|
------------4/6-------4--6--|-----------6--------2--|
--------2h4-----------------|--4--------------------|
----------------------------|-----------------------|


                                                      
----------------------------|------------------------|
----------------------------|--------5h7h5-----------|
---------2h4h2----4h6h4-----|------------------------|
--2------------6---------6--|-----6------------------|
----------------------------|--4---------------------|
----------------------------|------------------------|


                                                                            
--------------------------|------------------------|-----------------------|
--------------------------|-------5----------------|--------------5/7/5----|
-------------------2------|------------------4-----|--2-----------4--------|
-------------2h4h2-2------|---------------4--------|--2--------6-----------|
----------2-----------4h2-|--4---------2--------0--|-----------------------|
--------------------------|------------------------|-----------------------|


                                                                              
-------------------------|-------------------------|-------------------------|
--------5----------------|-------------5--5/7/5----|------5------------------|
--------6----------4--2--|--2----------4--4/6/4----|------4-6h4--------------|
-----6----------4-----2--|--2------4/6-------------|--4h6---------6----------|
--4----------2--------0--|--0----------------------|-------------------------|
-------------------------|-------------------------|-------------------------|


                                                                       
-----------------------|------------------|---------------------------|
-----------------------|------------------|--------2h5h2--------------|
---------------6~-4~---|------------------|--------------2-----4/6/4--|
------------2----------|------------------|-----------------6---------|
--------2h4------------|------------------|---------------------------|
-----------------------|------------------|---------------------------|


                                                                             
--------------------------|--------------9------|--9------------------------|
--------5-----------------|-----------------12--|--12b-------12r-12-9---9---|
--------6--------4-----2--|---------------------|------------12r-12-----11--|
-----6-----6-----4--4--2--|---------------------|---------------------------|
--4-----------2--------0--|---------------------|---------------------------|
--------------------------|---------------------|---------------------------|


                                                                               
-------------------------|-----------------------------|----------------------|
-------------------------|---------12--14~-----14r-12--|--14~---------14b-----|
--11~-----------11h9-----|--9--13--------------14r-----|----------------------|
---------------------11--|-----------------------------|----------------------|
-------------------------|-----------------------------|----------------------|
-------------------------|-----------------------------|----------------------|


                                                         
--------------------------|-----------------------------|
--14b-------14r---12--14--|--12b-12/-9---------------9--|
--------------------------|-----------------9--11b------|
--------------------------|-------------11--------------|
--------------------------|-----------------------------|
--------------------------|-----------------------------|


                                                                  
--9------9-----------9-----------------|-------------------------|
-----12b---12-9----9---12-9------------|-------------------------|
----------------12----------12-11-9----|--11b---9~---9/---18/--0-|
------------------------------------11-|-------------------------|
---------------------------------------|-------------------------|
---------------------------------------|-------------------------|


                                                                   
------------------|----------------------|------------------------|
------------------|----------------------|-------5h7h5------------|
------------------|-----------4/-6/-4----|-------4-----4----------|
------------------|--------6-------------|------------------------|
------------------|----------------------|--7---------------------|
------------------|----------------------|------------------------|


                                                    
------------------------|--------------------------|
------------------------|-------5h7h5--------------|
---------------6--4h-0--|-------------4------4-----|
------------2-----------|----6------------------4--|
--------2h4-------------|--------------------------|
------------------------|--------------------------|


                                                                        
----0------------------------|-------------------|---------------------|
-------2---------------------|-------------------|---------------------|
----------------4h6h4-----4--|-------------------|---------------------|
----------4/-6--------4h6----|-------------------|---------------------|
-----------------------------|-------------------|--9------------7-----|
-----------------------------|-----------------9-|------------------7--|


                                                                       
------------------|---------------------------|-----------------------|
------------------|--------7h5--------5-------|-------5---------------|
------------------|------------6------4-------|---------------4-------|
------------------|---------------4h6----6/4--|-------6-------4-------|
------------------|---------------------------|--4---------2-------0--|
------------------|---------------------------|-----------------------|


                                                      
----------------------------|------------------------|
-------------------5/7/5----|--------5----4----------|
--2-------------4--4/6/4----|------------------4-----|
--2------2--4/6-------------|-----6---------------2--|
-----2h4--------------------|--4---------------------|
----------------------------|------------------------|


                                                                               
--5---------------------------|-----------------------|-----------------------|
--5h7h5-----------------------|------5h7h5------------|-----------------------|
---------4h-6--2-----4h6h4----|------------4----------|-----------4--6--4--4--|
------------------6--------6--|-----------------------|--------6--------------|
------------------------------|-----------------------|-----------------------|
------------------------------|-----------------------|-----------------------|


                                                           
-------------------------------|----------9--9-9-9-9-9-9--|
-------------------------------|----------12b-------------|
--9-9-9--9---9/11-11/13--------|--------------------------|
-------------------------11----|--------------------------|
-------------------------------|--------------------------|
-------------------------------|--------------------------|


                                                        
--9-------------------------|--------------------------|
--12r--9-----9--------------|-----------------------9--|
---------11-----11b-11b-----|--------11r--9-----11b----|
----------------------------|---------------11---------|
----------------------------|--------------------------|
----------------------------|--------------------------|


                                                               
--9------12--14--14~-------|--14r-12--14--14b-14--12-------12-|
-----14--------------------|--------------------------14------|
---------------------------|----------------------------------|
---------------------------|----------------------------------|
---------------------------|----------------------------------|
---------------------------|----------------------------------|


                                                                              
------------------------|-------------------------------|--------------------|
--14b-------14b-----14--|--14b-14--14b-14---------------|----------15~-------|
------------------------|------------------13h---13/1---|----------15~-------|
------------------------|-------------------------------|----------15~-------|
------------------------|-------------------------------|--------------------|
------------------------|-------------------------------|--------------------|


                                                                    
--------------------|----------------------|-----------------------|
--2~----------------|----------------------|-----------------------|
--2~----------------|----------------------|----------------11~--9~|
--2~-----------4~---|--11~-----------11~---|--14~------------------|
--------------------|----------------------|-----------------------|
--------------------|----------------------|-----------------------|

[ Tab from: http://www.guitartabs.cc/tabs/h/hendrix_jimi/all_along_the_watchtower_tab.html ]
                                                                        
----------------------|----------------------|-------------------------|
--14~-----------11~---|--14~-----------------|-------------------------|
----------------------|----------------11~---|--11~-13~-----11~---9~---|
----------------11~---|--14~-----------------|-------------------------|
--16~-----------------|----------------------|-------------------------|
----------------------|----------------------|-------------------------|


                                                                 
---------------------|--12-12-12/-14--14-14/16--16-16/19--19-19-|
---------------------|------------------------------------------|
--11~--0-------------|--9--9--9/--11--11-11/13--13-13/16--16-16-|
---------------------|------------------------------------------|
---------------------|------------------------------------------|
---------------------|------------------------------------------|


                                                                     
--19/--12----------------|--9----9-----------9----------------------|
-----------------------9-|----12---12-9----9---12-9-----------------|
--16/--9------------11b--|--------------11b---------11b11-9----9-11-|
-------------------------|----------------------------------11------|
-------------------------|------------------------------------------|
-------------------------|------------------------------------------|


                                                                
----------------------|--9----9-11-9------9-11-9------9-11-9---|
----------------12b---|----12b-------9-12--------9-12--------9-|
--11b-----------------|----------------------------------------|
----------------------|----------------------------------------|
----------------------|----------------------------------------|
----------------------|----------------------------------------|


                                                                  
------9----9------9-------------------|--------9-------9~--------|
--12b---12b-----9---12-9--------------|----12b-12b-12b-12~-------|
-------------11b---------11b11-9h-11--|--------------------------|
--------------------------------------|--------------------------|
--------------------------------------|--------------------------|
--------------------------------------|--------------------------|


                                                        
--11---11-11~-----------|--11--9-9-9-9-9-----7--9-7-7--|
--14b--14b14~-----------|--9---9-9-9-9-9-----7--7-7-7--|
------------------------|-----------------8------------|
------------------------|------------------------------|
------------------------|------------------------------|
------------------------|------------------------------|


                                                                    
-----5-----------------------------|---------11-9-9/-7-----9-7-7-7-|
-----5--8-8-8-8/10-10-10-10-13/--0-|------9-------------7--7-7-7-7-|
--6-----9-9-9-9/11-11-11-11-14/----|-----------------8--8--8-8-8-8-|
-----------------------------------|--11---------------------------|
-----------------------------------|-------------------------------|
-----------------------------------|-------------------------------|


                                                                
-----5--5----------------------|------9--11-9-9-9----7--9-7-7--|
-----5--5--x-x-x-x-x-x-x-x-x-x-|------9--9--9-9-9----7--7-7-7--|
--6--------x-x-x-x-x-x-x-x-x-x-|------------------8------------|
-------------------x-x-x-x-x-x-|--11---------------------------|
-------------------------x-x-x-|-------------------------------|
-------------------------------|-------------------------------|


                                                                               
-----5------------------------0--|--9--9-9-9-9-9-9-11-11-11-11-12-12-12-12-12-|
-----5--8-8-8-8/10-10/13/-x-x-0--|--12b------------14b---------15b------------|
--6-----9-9-9-9/11-11/14/-x------|--------------------------------------------|
---------------------------------|--------------------------------------------|
---------------------------------|--------------------------------------------|
---------------------------------|--------------------------------------------|


                                                                    
--12-14-14-14-14-16-16-16-16h17h16h17h16h17-----|------------------|
-----17b---------19b----------------------------|------------------|
------------------------------------------------|------------------|
------------------------------------------------|------------------|
------------------------------------------------|------------------|
------------------------------------------------|------------------|


                                                                       
------------------|-------------------------|-------------------------|
------------------|------7h5----------4-----|------5h7h-5----5/7/5----|
------------------|----------4-----4-----4--|------6---------4/6/4----|
------------------|-------------4-----------|-------------6-----------|
------------------|-------------------------|-------------------------|
------------------|-------------------------|-------------------------|


                                                                               
--------------------------|------5-------------------|------------------------|
--------------------------|------5h7-7-7----5/7/5----|------7h5---------------|
------9-9--x--------------|----------6-6----4/6/4----|----------6-6---4--4----|
------9-9--x----11--9-----|--------------6-----------|----------x-x------4----|
-------------9---------9--|--------------------------|------------------------|
--------------------------|--------------------------|------------------------|


                                                                   
-----------------------|------7------------|----------------------|
-----------------------|------9------------|------0------5/7/5----|
-----------------------|-------------------|------6------4/6/4----|
--4-4-4-4-4------------|-------------------|------7---------------|
-----------------------|-------------------|----------------------|
-----------------------|-------------------|----------------------|


                                                      
------------------------|------5---------------------|
------7h5---------------|------5h7--------5/7/5------|
-------------4----4-----|----------4h6----4/6/4----0-|
----------6----------4--|--------------6---------6---|
------------------------|----------------------------|
------------------------|----------------------------|


                                                          
---------------------------|---------------------------x-|
------7h5------------------|-------------------5/7/5---x-|
------6---4h6-4-----4------|----------------4--4/6/4-----|
-----------------4-----4-4-|--4h2-----2--6---------------|
---------------------------|------2h4--------------------|
---------------------------|-----------------------------|


                                                           
------------------------|--0-0-0-0-0--0-0-0-0-0-0-0-0-0-0-|
------7h5---------------|--0-0-0-0-0--0-0-0-0-0-0-0-0-0-0-|
------6---4--------4----|--6-6-6-6-6--6-6-6-6-6-6-6-6-----|
----------------4-------|--7-7-7-7-7--7-7-7-7-7-7-7-7-----|
-------------2----------|---------------------------------|
------------------------|---------------------------------|


                                                              
--9----9--9---9---9-------9--9--|--9---9---9---9---9~--------|
--12b--12b12b-12b-12b-----12b12b|--12b-12b-12b-12b-12~-------|
--------------------------------|----------------------------|
--------------------------------|----------------------------|
--------------------------------|----------------------------|
--------------------------------|----------------------------|


                                                        
----11--11--11--11--------|--11--12--11------11--------|
----14b-14b-14b-14b-------|--14b---------14--14b-------|
--------------------------|----------------------------|
--------------------------|----------------------------|
--------------------------|----------------------------|
--------------------------|----------------------------|


                                                            
----9--9--9---9---9---------|--9--9--9---9---9---9---------|
----12b12b12b-12b-12b-------|--12b12b12b-12b-12b-12b-------|
----------------------------|------------------------------|
----------------------------|------------------------------|
----------------------------|------------------------------|
----------------------------|------------------------------|


                                             
----11-11-11-11-11-11-12-12-12-12-12-12-12~-|
----14b14b14b14b14b14b15b15b15b15b15b15b15~-|
--------------------------------------------|
--------------------------------------------|
--------------------------------------------|
--------------------------------------------|


                                                 
--14-14-14-14-14-14-14~-16-16-16-16-16-16-16-16-|
--17b17b17b17b17b17b17~-19b19b19b19b19b19b19b19b|
------------------------------------------------|
------------------------------------------------|
------------------------------------------------|
------------------------------------------------|


                                                   
--19~19~19b19b19b19b19b19b19b19b19b19b19b19b19b19b|
--------------------------------------------------|
--------------------------------------------------|
--------------------------------------------------|
--------------------------------------------------|
--------------------------------------------------|


                                             
--19b19b19b19b19b19b19b19b19b19b19b19b19~---|
--------------------------------------------|
--------------------------------------------|
--------------------------------------------|
--------------------------------------------|
--------------------------------------------|


                                                   
--19b19b19b19b19b19b19b19b19b19b19b19b19b19b19b19b|
--------------------------------------------------|
--------------------------------------------------|
--------------------------------------------------|
--------------------------------------------------|
--------------------------------------------------|


                                             
--19b19b19b19b19b19b19b19b19b19b19b19b19~---|
--------------------------------------------|
--------------------------------------------|
--------------------------------------------|
--------------------------------------------|
--------------------------------------------|


                                                   
--19b19b19b19b19b19b19b19b19b19b19b19b19b19b19b19b|
--------------------------------------------------|
--------------------------------------------------|
--------------------------------------------------|
--------------------------------------------------|
--------------------------------------------------|


                                                   
--19b19b19b19b19b19b19b19b19b19b19b19b19b19b19b19b|
--------------------------------------------------|
--------------------------------------------------|
--------------------------------------------------|
--------------------------------------------------|
--------------------------------------------------|


                                                   
--19b19b19b19b19b19b19b19b19b19b19b19b19b19b19b19b|
--------------------------------------------------|
--------------------------------------------------|
--------------------------------------------------|
--------------------------------------------------|
--------------------------------------------------|


                                                
--19b19b19b19b19~-19~-19b19b19b19b19b19b19b19b||
----------------------------------------------||
----------------------------------------------||
----------------------------------------------||
----------------------------------------------||
----------------------------------------------||
Comments