Helmet - Wilmas Rainbow Chords & Tabs

 

Wilmas Rainbow Chords & Tabs

Helmet Chords & Tabs

Version: 2 Type: Bass Tab 0 ratings
1 star 2 stars 3 stars 4 stars 5 stars
comments

Wilmas Rainbow Bass Tab

   
Title: Wilma's Rainbow.
Artist: Helmet.
Taken From: 'Betty' album on Interscope records.

I'm not sure of the tuning on this track, it's sounds ok in the 
standard G,D,A,E, tuning though.

/ = slide

intro
G--------------------- 
D---------------------
A---------------------
E--0--3--4--0--3--0--3

Verse part 1
G------------------------------------------------
D------------------------------------------------
A------------------------------------------------
E--0--3--0--3--0--3--0--3--0--3--0--3--0--3--0--5

verse part 2
G---------------------------------------------
D---------------------------------------------
A---------------------------------------------
E--0--3--0--3--0--3--0--3--0--3--0--5--3--5--0
[ Tab from: http://www.guitartabs.cc/tabs/h/helmet/wilmas_rainbow_btab_ver_2.html ]
chorus part 1
G--------------------------------
D--------------------------------
A--------------------------------
E--0--0--0--2--3--3--3--3/6--6--6

chorus part 1
G----------------------------------
D----------------------------------
A------------------------1--1--1--1
E--0--0--0--2--3--3--3--3----------

end bit
G----------------------------------
D----------------------------------
A----------------------------------
E--0--3--3--3--0

(i'm not sure of the end bit)

Order:

Intro (6 times)
Verse part 1+2 (2 times)
Chorus part 1+2 (1 ")
Verse part 1 (1 1/2 ")
Pause
Verse Part 1+2 (2 ")
Chorus (1 ")
Intro (7 ")
Pause
Chorus (1 ")
Intro (32 ") - through guitar solo
End Bit (1 ")
---------------------------------------------

The song is very easy to play, and is quite cool.
If you have any corrections or comments you would like to make, or 
have any new tabs:
e-mail me - ebb@postmaster.co.uk
Comments