Helmet - Taken Chords & Tabs

 

Taken Chords & Tabs

Helmet Chords & Tabs

Version: 1 Type: Tab 0 ratings
1 star 2 stars 3 stars 4 stars 5 stars
comments

Taken Tab

   
-----------------------------------------------------------------------------
                            TAKEN - Helmet
-----------------------------------------------------------------------------

Tabbed by an17nin17
Email - c.norman83@ntlworld.com

Standard Tuning - E, A, D, G, B, E

Intro/Verse

|------------------|
|------------------|
|------------------|
|-5-5------5-5-----|
|-5-5-<5>--5-5-<5>-|
|-3-3-<5>--3-3-<5>-|
  Play x 16

Chorus

|----------------------------|
|----------------------------|
|----------------------------|
|-5-5-7--5-5-7-5--5-7--5-5-7-|
|-5-5-7--5-5-7-5--5-7--5-5-7-|
|-3-3-5--3-3-5-3--3-5--3-3-5-|
  Play x 4

|------------------|
|------------------|
|------------------|
|-5-5------5-5-----|
|-5-5-<5>--5-5-<5>-|
|-3-3-<5>--3-3-<5>-|
  Play x 16
[ Tab from: http://www.guitartabs.cc/tabs/h/helmet/taken_tab.html ]
|----------------------------|
|----------------------------|
|----------------------------|
|-5-5-7--5-5-7-5--5-7--5-5-7-|
|-5-5-7--5-5-7-5--5-7--5-5-7-|
|-3-3-5--3-3-5-3--3-5--3-3-5-|
  Play x 8

Middle 8

|------------------|
|------------------|
|------------------|
|-9-9------9-9-----|
|-9-9-<9>--9-9-<9>-|
|-7-7-<9>--7-7-<9>-|
  Play x 8

|------------------|
|------------------|
|------------------|
|-5-5------5-5-----|
|-5-5-<5>--5-5-<5>-|
|-3-3-<5>--3-3-<5>-|
  Play x 16

|----------------------------|
|----------------------------|
|----------------------------|
|-5-5-7--5-5-7-5--5-7--5-5-7-|
|-5-5-7--5-5-7-5--5-7--5-5-7-|
|-3-3-5--3-3-5-3--3-5--3-3-5-|
  Play x 8

Outro

|-----------0~~-|
|-----------0~~-|
|-----------0~~-|
|-9-9-9-9-9-9~~-|
|-9-9-9-9-9-9~~-|
|-7-7-7-7-7-7~~-|

And That's it

Contact me if you have any comments about this tab.
Comments