Helmet - Speechless Chords & Tabs

 

Speechless Chords & Tabs

Helmet Chords & Tabs

Version: 1 Type: Tab 0 ratings
1 star 2 stars 3 stars 4 stars 5 stars
comments

Speechless Tab

#----------------------------------PLEASE NOTE---------------------------------#
#This file is the author's own work and represents their interpretation of the #
#song. You may only use this file for private study, scholarship, or research. #
#------------------------------------------------------------------------------##
From: HANA31B@prodigy.com (MR JUSTIN T CONLON)
Subject: Guitar tab: Speechless by Helmet

Speechless by Helmet

With Drop-D tuning and distortion
E------------------------------------------------------------------
B------------------------------------------------------------------
G------------------------------------------------------------------
D-5~~3-2-1-1-1-1....0--------0------5-2-3-0---0--X-X-X-X-X--5-2-3-0
A-5~~3-2-1-1-1-1....0--------0------5-2-3-0---0--X-X-X-X-X--5-2-3-0
D-5~~3-2-1-1-1-1....0--------0------5-2-3-0---0--X-X-X-X-X--5-2-3-0
 {======Repeated 3 times======}                     {Repeated 2 times}
E--------------------------------------------------------------------------
B--------------------------------------------------------------------------
G-------------------------------------------------------------------------
D------------0----------5-2-3-0----0--X-X-X-X-X-----3--3-3-3-2--2-2-2----0-
A------------0----------5-2-3-0----0--X-X-X-X-X-----3--3-3-3-2--2-2-2----0-
D------------0----------5-2-3-0----0--X-X-X-X-X-----3--3-3-3-2--2-2-2----0-

E--------------------------------------------------------------------------
B--------------------------------------------------------------------------
G--------------------------------------------------------------------------
D----0----------5-2-3-0--------0--X-X-X-X-X--5-2-3-0----------0-----5-2-3-0
A----0----------5-2-3-0--------0--X-X-X-X-X--5-2-3-0----------0-----5-2-3-0
D----0----------5-2-3-0--------0--X-X-X-X-X--5-2-3-0----------0-----5-2-3-0

                         {=Repeated 8 times=}
E-----------------------------------------------------------------------
B-----------------------------------------------------------------------
G-----------------------------------------------------------------------
D----------------0------3--3-3-3-2--2-2-2---6-6-7-7----3--3-3-3-2--2-2-2
A----------------0------3--3-3-3-2--2-2-2---6-6-7-7----3--3-3-3-2--2-2-2
D----------------0------3--3-3-3-2--2-2-2---6-6-7-7----3--3-3-3-2--2-2-2
   {===========Repeated 3 times===========} {Repeated 12 times}
E-------------------------------------------------------------
B-------------------------------------------------------------
G-------------------------------------------------------------
D--7--7-7-7-8--8-8-8-9--9-9-9-10--10-10-10----0-2-3--0-2-2-3-3
A--7--7-7-7-8--8-8-8-9--9-9-9-10--10-10-10----0-2-3--0-2-2-3-3
D--7--7-7-7-8--8-8-8-9--9-9-9-10--10-10-10----0-2-3--0-2-2-3-3
                                                ^ Solo jumps in after 1 1/2
  {Repeated 16 times}  E---------------------------
B---------------------------
G---------------------------
D--3--3-3-3-2--2-2-2----2~~~
A--3--3-3-3-2--2-2-2----2~~~
D--3--3-3-3-2--2-2-2----2~~~
Sorry I couldn't tab the solo, but this tab souds good and is probably
pretty close.  If you have any questions, comments, the solo, etc. please
E-Mail me at HANA31B@PRODIGY.COM
           Justin

[ Tab from: http://www.guitartabs.cc/tabs/h/helmet/speechless_tab.html ]
From mail.prodigy.com!HANA31B Tue Mar 14 23:18:03 1995
Return-Path: 
Received: from alf2.tcd.ie by sadhbh.scrg.cs.tcd.ie with smtp
	(Smail3.1.28.1 #3) id m0rofqi-00058CC; Tue, 14 Mar 95 23:18 WET
Received: from post-office.nevada.edu by alf2.tcd.ie; (5.65/1.1.8.2/28Sep94-0239PM)
	id AA22242; Tue, 14 Mar 1995 23:17:26 GMT
Received: from maily2.prodigy.com (maily2.prodigy.com [192.207.105.41]) by post-office.nevada.edu (8.6.10/8.6.4) with ESMTP id PAA06948 for ; Tue, 14 Mar 1995 15:16:33 -0800
Received: from mail.prodigy.com (mail.prodigy.com [199.4.137.13]) by maily2.prodigy.com (8.6.10/8.6.9) with SMTP id RAA52256 for ; Tue, 14 Mar 1995 17:34:19 -0500
Date: Tue, 14 Mar 1995 17:43:00 EST
From: HANA31B@prodigy.com (MR JUSTIN T CONLON)
X-Mailer: PRODIGY Services Company Internet mailer [PIM 3.2-342.56]
Message-Id: 
To: guitar@nevada.edu
Subject: Guitar tab:Corrected Speechless
Status: RO

Speechless by Helmet
With Drop-D tuning and distortion
E------------------------------------------------------------------
B------------------------------------------------------------------
G------------------------------------------------------------------
D-5~~3-2-1-1-1-1....0--------0------5-2-3-0---0--X-X-X-X-X--5-2-3-0
A-5~~3-2-1-1-1-1....0--------0------5-2-3-0---0--X-X-X-X-X--5-2-3-0
D-5~~3-2-1-1-1-1....0--------0------5-2-3-0---0--X-X-X-X-X--5-2-3-0
  {====Repeated 3 times====}                    {Repeated 2 times}
E----------------------------------------------------------------------
B----------------------------------------------------------------------
G----------------------------------------------------------------------
D----------0--------5-2-3-0----0--X-X-X-X-X-----3--3-3-3-2--2-2-2----0-
A----------0--------5-2-3-0----0--X-X-X-X-X-----3--3-3-3-2--2-2-2----0-
D----------0--------5-2-3-0----0--X-X-X-X-X-----3--3-3-3-2--2-2-2----0-
E--------------------------------------------------------------------------
B--------------------------------------------------------------------------
G--------------------------------------------------------------------------
D----0-------5-2-3-0-----------0--X-X-X-X-X--5-2-3-0----------0-----5-2-3-0
A----0-------5-2-3-0-----------0--X-X-X-X-X--5-2-3-0----------0-----5-2-3-0
D----0-------5-2-3-0-----------0--X-X-X-X-X--5-2-3-0----------0-----5-2-3=0

                     {Repeated 8 times}
E--------------------------------------------------------------------
B--------------------------------------------------------------------
G--------------------------------------------------------------------
D--------------0------3--3-3-3-2--2-2-2--6-6-7-7----3--3-3-3-2--2-2-2
A--------------0------3--3-3-3-2--2-2-2--6-6-7-7----3--3-3-3-2--2-2-2
D--------------0------3--3-3-3-2--2-2-2--6-6-7-7----3--3-3-3-2--2-2-2
   {===========Repeated 3 times===========} {Repeated 12 times}
E-------------------------------------------------------------
B-------------------------------------------------------------
G-------------------------------------------------------------
D--7--7-7-7-8--8-8-8-9--9-9-9-10--10-10-10----0-2-3--0-2-2-3-4
A--7--7-7-7-8--8-8-8-9--9-9-9-10--10-10-10----0-2-3--0-2-2-3-4
D--7--7-7-7-8--8-8-8-9--9-9-9-10--10-10-10----0-2-3--0-2-2-3-4
                                                ^ Solo jumps in after 1 1/2

{Repeated 16 times}
E---------------------------
B---------------------------
G---------------------------
D--3--3-3-3-2--2-2-2----2~~~
A--3--3-3-3-2--2-2-2----2~~~
D--3--3-3-3-2--2-2-2----2~~~
Sorry I couldn't tab the solo, but the parts I could tab sound pretty
close.  If you have the solo or any corrections please E-Mail me at
hana31b@prodigy.com
Justin







xM
Times New Roman


Comments