Helmet - Rude Chords & Tabs

 

Rude Chords & Tabs

Helmet Chords & Tabs

Version: 1 Type: Tab 0 ratings
1 star 2 stars 3 stars 4 stars 5 stars
comments

Rude Tab

Title - Rude
Album - Strap It On
Artist - Helmet (of course)
tabbed by broc

^ bend

Intro
|----------------------------------------------------------------------------------------------------------------------|
|----------------------------------------------------------------------------------------------------------------------|
|----------------------------------------------------------------------------------------------------------------------|
|----------------------------55555555h7777777777-55555555h7777777777-55555555h7777777777--|
|----------------------------55555555h7777777777-55555555h7777777777-55555555h7777777777--|
|----------------------------55555555h5555555555-55555555h5555555555-55555555h5555555555--|
  drum intro.................						RUDE!!!!!!!!!!!!!!!!

Verse
|----------------------------------------------------------------------------------------------------------------------|
|----------------------------------------------------------------------------------------------------------------------|
|----------------------------------------------------------------------------------------------------------------------|
|---0-00-0-00h2h3------0-00-0-00h2h3------0-00-0-00h2h3------0-00-0-00h2h3------0-00-0-00h2h3-|
|---0-00-0-00h2h3------0-00-0-00h2h3------0-00-0-00h2h3------0-00-0-00h2h3------0-00-0-00h2h3-|
|---0-00-0-00h2h3------0-00-0-00h2h3------0-00-0-00h2h3------0-00-0-00h2h3------0-00-0-00h2h3-|

Chorus
|----------------------------------------------------------------------------------------------------------------------|
|----------------------------------------------------------------------------------------------------------------------|
|----------------------------------------------------------------------------------------------------------------------|
|--5555555-544445------------------------------------------------------------------------------------------------|
|--5555555-544445------------repeat 8 times-------------------------------------------------------------------|
|--5555555-544445-----------------------------------------------------------------------------------------------|
	     RUDE......
[ Tab from: http://www.guitartabs.cc/tabs/h/helmet/rude_tab.html ]
During solo
|----------------------------------------------------------------------------------------------------------------------|
|----------------------------------------------------------------------------------------------------------------------|
|----------------------------------------------------------------------------------------------------------------------|
|--3333333333333-000000000000-33333333333-0000000000000-77777777777-3333333333333-|
|--3333333333333-000000000000-33333333333-0000000000000-77777777777-3333333333333-|
|--3333333333333-000000000000-33333333333-0000000000000-77777777777-3333333333333-|

during solo continued
|----------------------------------------------------------------------------------------------------------------------|
|----------------------------------------------------------------------------------------------------------------------|
|----------------------------------------------------------------------------------------------------------------------|
|--000000000000-9999999999999999999-1010101010101010101010----------------------------------|
|--000000000000-9999999999999999999-1010101010101010101010----------------------------------|
|--000000000000-9999999999999999999-1010101010101010101010----------------------------------|

outro
|--0^--------------0^---------------0^----------------0^------------------0^-----------------0^---------------|
|--0^--------------0^---------------0^----------------0^------------------0^-----------------0^---------------|
|--0^--------------0^---------------0^----------------0^------------------0^-----------------0^---------------|
|--5^--------------5^---------------5^----------------5^------------------5^-----------------5^-----------------|
|--5^--------------5^---------------5^----------------5^------------------5^-----------------5^-----------------|
|--5^--------------5^---------------5^----------------5^------------------5^-----------------5^-----------------|
i just bend the neck of the guitar to get this.....but if u can find a better way go 4 it....
easy as........oh yeah all helmet solo's are improvised, so anyone can make up a solo that goes with the song..
Comments