Helmet - Renovation Chords & Tabs

 

Renovation Chords & Tabs

Helmet Chords & Tabs

Version: 2 Type: Bass Tab 0 ratings
1 star 2 stars 3 stars 4 stars 5 stars
comments

Renovation Bass Tab

   
SONG:RENOVATION
ARTIST:HELMET
ALBUM:AFTERTASTE
TRANSCRIBED BY D.PARKER

TUNE EACH STRING DOWN 1/2 STEP

RIFF 1

Gb|----------
Db|----------
Ab|----------
Eb|5-5-3-0-3-

RIFF 2

Gb|------------
Db|------------
Ab|------------
Eb|5-5-3-0-3-5-

RIFF 3
[ Tab from: http://www.guitartabs.cc/tabs/h/helmet/renovation_btab_ver_2.html ]
Gb|------------------
Db|------------------
Ab|------------------
Eb|5-5-3-0-3-5-2--3--

RIFF 4

Gb|--------------
Db|--------------
Ab|--------------
Eb|2--2-2-3--3-3-

RIFF 5

Gb|----------------
Db|----------------
Ab|----------------
Eb|0-0-0-0-3-3-3-3-

THERE'S HOW IT GOES

RIFF 1 X 12

RIFF 2 X 14

RIFF 3 X 4

RIFF 4 X 2

RIFF 1 X 12

RIFF 3 X 4

RIFF 4 X 2

RIFF 5 X 3

RIFF 2 X 12

RIFF 3 X 8

RIFF 4 X 10


Comments