Helmet - Milquetoast Chords & Tabs

 

Milquetoast Chords & Tabs

Helmet Chords & Tabs

Version: 1 Type: Tab 0 ratings
1 star 2 stars 3 stars 4 stars 5 stars
comments

Milquetoast Tab

   
-----------------------------------------------------------------------------
                         MILQUETOAST - Helmet
-----------------------------------------------------------------------------

Tabbed by an17nin17
E-Mail - c.norman83@ntlworld.com

Tuning - D, A, D, G, B, E

Intro

|---------------------|-------------------------|
|---------------------|-------------------------|
|---------------------|-------------------------|
|-6--0-0-6--0-0--3--4-|-5-5-/3-2-0-/5-5-5-3-2-0-|
|-6--0-0-6--0-0--3--4-|-5-5-/3-2-0-/5-5-5-3-2-0-|
|-6--0-0-6--0-0--3--4-|-5-5-/3-2-0-/5-5-5-3-2-0-|
     PM.    PM.       | Play x 8

Verse

|------|---------------------------------|------|
|-BASS-|-0-0-0-0-0-0-0-0-0-0-0-0-0-0-0-0-|-BASS-|
|------|-0-0-0-0-0-0-0-0-0-0-0-0-0-0-0-0-|------|
|-ONLY-|-3-3-3-3-3-3-3-3-3-3-3-3-3-3-3-3-|-ONLY-|
|------|-3-3-3-3-3-3-3-3-3-3-3-3-3-3-3-3-|------|
|------|-3-3-3-3-3-3-3-3-3-3-3-3-3-3-3-3-|------|

Chorus

|------------------------------------------|
|------------------------------------------|
|------------------------------------------|
|-0-0-0-2-3----0-0-0-2-3-5--3----0-0-0-2-3-|
|-0-0-0-2-3----0-0-0-2-3-5--3----0-0-0-2-3-|
|-0-0-0-2-3----0-0-0-2-3-5--3----0-0-0-2-3-|

Verse
                                     1,3|           2|           4|
|--------------------------|------------|------------|------------|
|--------------------------|------------|------------|------------|
|--------------------------|------------|------------|------------|
|-0--0-2---0--0-2---0--0-2-|-0--3-2-0-2-|-0--5-3-0-2-|-5-5-/3-2-0-|
|-0--0-2---0--0-2---0--0-2-|-0--3-2-0-2-|-0--5-3-0-2-|-5-5-/3-2-0-|
|-0--0-2---0--0-2---0--0-2-|-0--3-2-0-2-|-0--5-3-0-2-|-5-5-/3-2-0-|
[ Tab from: http://www.guitartabs.cc/tabs/h/helmet/milquetoast_tab.html ]
|---------------------------------|-------------------------------------|
|---------------------------------|-------------------------------------|
|-0-0-0-0-0-0-0-0-0-0-0-0-0-0-0-0-|-------------------------------------|
|-3-3-3-3-3-3-3-3-3-3-3-3-3-3-3-3-|-0--0-2---0--0-2---0--0-2---0--3-2-0-|
|-3-3-3-3-3-3-3-3-3-3-3-3-3-3-3-3-|-0--0-2---0--0-2---0--0-2---0--3-2-0-|
|-3-3-3-3-3-3-3-3-3-3-3-3-3-3-3-3-|-0--0-2---0--0-2---0--0-2---0--3-2-0-|
                                  | Play x 2

|------------------------------------------------------------------|
|------------------------------------------------------------------|
|------------------------------------------------------------------|
|-0-0-0-2-3----0-0-0-2-3-5--3----0-0-0-2-3----/10--10--5-5-0-3-2-0-|
|-0-0-0-2-3----0-0-0-2-3-5--3----0-0-0-2-3----/10--10--5-5-0-3-2-0-|
|-0-0-0-2-3----0-0-0-2-3-5--3----0-0-0-2-3----/10--10--5-5-0-3-2-0-|

Middle 8

|-------------------------|-------------------------------------------------|
|-------------------------|-------------------------------------------------|
|-------------------------|-------------------------------------------------|
|-5-5-/3-2-0-/5-5-5-3-2-0-|-3-5-3-0--5-5--3-5-3-0--5-5--3-5-3-0--5-5--3-5-3-|
|-5-5-/3-2-0-/5-5-5-3-2-0-|-3-5-3-0--5-5--3-5-3-0--5-5--3-5-3-0--5-5--3-5-3-|
|-5-5-/3-2-0-/5-5-5-3-2-0-|-3-5-3-0--5-5--3-5-3-0--5-5--3-5-3-0--5-5--3-5-3-|
  Play x 8                | Play x 6

|---------------|---------------------------|-------------|
|---------------|---------------------------|-------------|
|---------------|---------------------------|-------------|
|-/10-10-8-10-8-|-3---0---1---8---4---0---1-|-6-6-6-6-6-6-|
|-/10-10-8-10-8-|-3---0---1---8---4---0---1-|-6-6-6-6-6-6-|
|-/10-10-8-10-8-|-3---0---1---8---4---0---1-|-6-6-6-6-6-6-|
                |                           | Play x 4

Outro

|--------------------------|
|--------------------------|
|--------------------------|
|-0-0-0-0-0-4--0-0-0-0-0-4-|
|-0-0-0-0-0-4--0-0-0-0-0-4-|
|-0-0-0-0-0-4--0-0-0-0-0-4-|
  Play x 12

And Thats it.
Comments