Helmet - Make Room Chords & Tabs

 

Make Room Chords & Tabs

Helmet Chords & Tabs

Version: 3 Type: Tab 0 ratings
1 star 2 stars 3 stars 4 stars 5 stars
comments

Make Room Tab

   
-----------------------------------------------------------------------------
                         MAKE ROOM - Helmet
-----------------------------------------------------------------------------

Tabbed by an17nin17
Email - c.norman83@ntlworld.com

Drop D Tuning – D, A, D, G, B, E
 
Intro
 
|-------------------------------------|
|-------------------------------------|
|-------------------------------------|
|-3-3-3-3-3-3-3-3-3-3-3-3-3-3-3-3-3-3-|
|-3-3-3-3-3-3-3-3-3-3-3-3-3-3-3-3-3-3-|
|-3-3-3-3-3-3-3-3-3-3-3-3-3-3-3-3-3-3-|
  PM………………………………………………………

Verse

|----------------------------------------|
|----------------------------------------|
|----------------------------------------|
|-0-0-9-10--0-0-9-10--0-0-9-10--0-0-9-10-|
|-0-0-9-10--0-0-9-10--0-0-9-10--0-0-9-10-|
|-0-0-9-10--0-0-9-10--0-0-9-10--0-0-9-10-|
  Play x 4
 
Chorus

|------------------------------------|
|-------0--------0--------0--------0-|
|-------0--------0--------0--------0-|
|-0-0-2-3--0-0-2-3--0-0-2-3--0-0-2-5-|
|-0-0-2-3--0-0-2-3--0-0-2-3--0-0-2-5-|
|-0-0-2-3--0-0-2-3--0-0-2-3--0-0-2-5-|
  Play x 2
 
|----------------------------------------|
|----------------------------------------|
|----------------------------------------|
|-0-0-9-10--0-0-9-10--0-0-9-10--0-0-9-10-|
|-0-0-9-10--0-0-9-10--0-0-9-10--0-0-9-10-|
|-0-0-9-10--0-0-9-10--0-0-9-10--0-0-9-10-|
  Play x 4
[ Tab from: http://www.guitartabs.cc/tabs/h/helmet/make_room_tab_ver_3.html ]
|------------------------------------|-------------------|
|-------0--------0--------0--------0-|-------------------|
|-------0--------0--------0--------0-|-------------------|
|-0-0-2-3--0-0-2-3--0-0-2-3--0-0-2-5-|-7-7---7-7-7-7-7-7-|
|-0-0-2-3--0-0-2-3--0-0-2-3--0-0-2-5-|-7-7---7-7-7-7-7-7-|
|-0-0-2-3--0-0-2-3--0-0-2-3--0-0-2-5-|-7-7---7-7-7-7-7-7-|
  Play x 2                           |

|----------------------------------------|
|----------------------------------------|
|----------------------------------------|
|-0-0-9-10--0-0-9-10--0-0-9-10--0-0-9-10-|
|-0-0-9-10--0-0-9-10--0-0-9-10--0-0-9-10-|
|-0-0-9-10--0-0-9-10--0-0-9-10--0-0-9-10-|
  Play x 4

|------------------------------------|-------------------------|
|-------0--------0--------0--------0-|-------------------------|
|-------0--------0--------0--------0-|-------------------------|
|-0-0-2-3--0-0-2-3--0-0-2-3--0-0-2-5-|-7-7---7-7-7---7-7-6-5-3-|
|-0-0-2-3--0-0-2-3--0-0-2-3--0-0-2-5-|-7-7---7-7-7---7-7-6-5-3-|
|-0-0-2-3--0-0-2-3--0-0-2-3--0-0-2-5-|-7-7---7-7-7---7-7-6-5-3-|
  Play x 2                           |

Middle 8
 
|-------------------|-------------|
|-------------------|-------------|
|-------------------|-------------|
|-7-7-7-7-7-7-6-5-3-|-7-7-3-3-3-3-|
|-7-7-7-7-7-7-6-5-3-|-7-7-3-3-3-3-|
|-7-7-7-7-7-7-6-5-3-|-7-7-3-3-3-3-|
  Play x 3          |

Outro

|------------------------------------|------------|-----|
|-------0--------0--------0--------0-|------------|-----|
|-------0--------0--------0--------0-|------------|-----|
|-0-0-2-3--0-0-2-3--0-0-2-3--0-0-2-5-|-2-2-3-2--2-|-2~~-|
|-0-0-2-3--0-0-2-3--0-0-2-3--0-0-2-5-|-2-2-3-2--2-|-2~~-|
|-0-0-2-3--0-0-2-3--0-0-2-3--0-0-2-5-|-2-2-3-2--2-|-2~~-|
  Play x 12                          | Play x 16  |

And That's It

Contact me if you have any comments about this tab.
Comments