Helmet - Like I Care Chords & Tabs

 

Like I Care Chords & Tabs

Helmet Chords & Tabs

Version: 1 Type: Tab 0 ratings
1 star 2 stars 3 stars 4 stars 5 stars
comments

Like I Care Tab

   
-----------------------------------------------------------------------------
                         LIKE I CARE - Helmet
-----------------------------------------------------------------------------

Tabbed by an7nin17
Email - c.norman83@ntlworld.com

Drop D Tuning - D, A, D, G, B, E

Intro

|------|---------------|
|-BASS-|---------------|
|------|---------------|
|------|-<4>~~---7-5~~-|
|-ONLY-|-<4>~~---------|
|------|-<4>~~---------|
       | ^ Feed - backed notes

Verse

|-----------------------------|
|-----------------------------|
|-----------------------------|
|-5-0-3-5-0-5-0-0-5-0-3-5-0-5-|
|-5-0-3-5-0-5-0-0-5-0-3-5-0-5-|
|-5-0-3-5-0-5-0-0-5-0-3-5-0-5-|
  Play x 8

Chorus

|-----------------------------------------------------------------------|
|-111111111111111111111111111113-13-13-13-8-8-8-8-8-8-8-8-8-8-8-8-8-8---|
|-101010101010101010101010101012-12-12-12-7-7-7-7-7-7-7-7-7-7-7-7-7-7---|
|-8-8-8-8-8-8-8-8-8-8-8-8-8-8-10-10-10-10-5-5-5-5-5-5-5-5-5-5-5-5-5-5-0-|
|-8-8-8-8-8-8-8-8-8-8-8-8-8-8-10-10-10-10-5-5-5-5-5-5-5-5-5-5-5-5-5-5-0-|
|-8-8-8-8-8-8-8-8-8-8-8-8-8-8-10-10-10-10-5-5-5-5-5-5-5-5-5-5-5-5-5-5-0-|
  Play x 4

Solo

|-----------------------------|
|-----------------------------|
|-----------------------------|
|-5-0-3-5-0-5-0-0-5-0-3-5-0-5-|
|-5-0-3-5-0-5-0-0-5-0-3-5-0-5-|
|-5-0-3-5-0-5-0-0-5-0-3-5-0-5-|
  Play x 9
[ Tab from: http://www.guitartabs.cc/tabs/h/helmet/like_i_care_tab.html ]
|-----------------------|----------------------13^-|
|-----------------------|--------------------------|
|-5~~---7^-p5-4---0-----|--------------------------|
|-------------------3~~-|-3~~----------0~~---------|
|-----------------------|--------------0~~---------|
|-----------------------|-------/3-/2-/0~~---------|
  Guitar 2

|----------------------------|--------------------22p20-19~~-15-13~~-|
|----------------------------|----------------/----------------------|
|-17~~---19-p17-16---12-10~~-|-10h12~~--------/----------------------|
|----------------------------|---------------------------------------|
|----------------------------|---------------------------------------|
|----------------------------|---------------------------------------|

Outro

|-----------------------------------------------------------------------|
|-111111111111111111111111111113-13-13-13-8-8-8-8-8-8-8-8-8-8-8-8-8-8---|
|-101010101010101010101010101012-12-12-12-7-7-7-7-7-7-7-7-7-7-7-7-7-7---|
|-8-8-8-8-8-8-8-8-8-8-8-8-8-8-10-10-10-10-5-5-5-5-5-5-5-5-5-5-5-5-5-5-0-|
|-8-8-8-8-8-8-8-8-8-8-8-8-8-8-10-10-10-10-5-5-5-5-5-5-5-5-5-5-5-5-5-5-0-|
|-8-8-8-8-8-8-8-8-8-8-8-8-8-8-10-10-10-10-5-5-5-5-5-5-5-5-5-5-5-5-5-5-0-|
  Play x 4
|---------|
|-6-6-6-6-|
|-5-5-5-5-|
|-3-3-3-3-|
|-3-3-3-3-|
|-3-3-3-3-|

|-----------------------------------------------------------------------|
|-111111111111111111111111111113-13-13-13-8-8-8-8-8-8-8-8-8-8-8-8-8-8---|
|-101010101010101010101010101012-12-12-12-7-7-7-7-7-7-7-7-7-7-7-7-7-7---|
|-8-8-8-8-8-8-8-8-8-8-8-8-8-8-10-10-10-10-5-5-5-5-5-5-5-5-5-5-5-5-5-5-0-|
|-8-8-8-8-8-8-8-8-8-8-8-8-8-8-10-10-10-10-5-5-5-5-5-5-5-5-5-5-5-5-5-5-0-|
|-8-8-8-8-8-8-8-8-8-8-8-8-8-8-10-10-10-10-5-5-5-5-5-5-5-5-5-5-5-5-5-5-0-|
  Play x 6

|-----|
|-6~~-|
|-5~~-|
|-3~~-|
|-3~~-|
|-3~~-|

And That's It.
Comments