Helmet - I Know Chords & Tabs

 

I Know Chords & Tabs

Helmet Chords & Tabs

Version: 1 Type: Tab 0 ratings
1 star 2 stars 3 stars 4 stars 5 stars
comments

I Know Tab

   
-----------------------------------------------------------------------------
                            I KNOW - Helmet
-----------------------------------------------------------------------------

Tabbed by an17nin17
Email - c.norman83@ntlworld.com

Drop C# Tuning - C#, G#, C#, F#, A#, D#

Intro

|-------|-------------------------------------------------------------|
|-DRUMS-|-----5-5-5-5-------0~~-------5~~---------0~~-------------5~~-|
|-------|-----5-5-5-5-------0~~-------5~~---------0~~-------------5~~-|
|-------|-3~~-5-5-5-5---0~~-0~~---3~~-5~~---4-3-0-0~~---2h3-3-3-3-5~~-|
|-ONLY--|-3~~-----------0~~-------3~~-------4-3-0-------2h3-3-3-3-----|
|-------|-3~~-----------0~~-------3~~-------4-3-0-------2h3-3-3-3-----|

|----------------------------|------------------|---------|------------|
|--------------0~~-----------|------------------|---------|------------|
|--------------0~~-----------|------------------|---------|------------|
|-5-4-3-0--0~~-0~~---1~~---0-|<3><3><3><3><3><3>|<4><4><4>|<3><3><4><4>|
|-5-4-3-0--0~~-------1~~---0-|<3><3><3><3><3><3>|<4><4><4>|<3><3><4><4>|
|-5-4-3-0--0~~-------1~~---0-|<3><3><3><3><3><3>|<4><4><4>|<3><3><4><4>|
                             | Play x 10        |         | Play x 3

Verse

|---------|-----------|-------|-------------------|
|---------|-----------|-------|-------------------|
|---------|-----------|-------|-------------------|
|-4-3-0-0-|-0-4-3-0-0-|-0-0-0-|-0-4-3-0-0-2-3-2-0-|
|-4-3-0-0-|-0-4-3-0-0-|-0-0-0-|-0-4-3-0-0-2-3-2-0-|
|-4-3-0-0-|-0-4-3-0-0-|-0-0-0-|-0-4-3-0-0-2-3-2-0-|
          | Play x 16 |

Chorus
[ Tab from: http://www.guitartabs.cc/tabs/h/helmet/i_know_tab.html ]
|-------------------------------------------------|
|-----5~~-------0~~-------5~~-------------0~~-----|
|-----5~~-------0~~-------5~~-------------0~~-----|
|-3~~-5~~---0~~-0~~---3~~-5~~---/10-9-0~~-0~~---1-|
|-3~~-------0~~-------3~~-------/10-9-0~~-------1-|
|-3~~-------0~~-------3~~-------/10-9-0~~-------1-|

|---------|-----------|---------|-----------|----------------------|
|---------|-----------|---------|-----------|----------------------|
|---------|-----------|---------|-----------|----------------------|
|-4-3-0-0-|-0-4-3-0-0-|-5-3-0-0-|-0-4-3-0-0-|-12-10-0-10-0-0-10-12-|
|-4-3-0-0-|-0-4-3-0-0-|-5-3-0-0-|-0-4-3-0-0-|-12-10-0-10-0-0-10-12-|
|-4-3-0-0-|-0-4-3-0-0-|-5-3-0-0-|-0-4-3-0-0-|-12-10-0-10-0-0-10-12-|
          | Play x 6  |         | Play x 8  |

|-------------------------------------------------|
|-----5~~-------0~~-------5~~-------------0~~-----|
|-----5~~-------0~~-------5~~-------------0~~-----|
|-3~~-5~~---0~~-0~~---3~~-5~~---/10-9-0~~-0~~---1-|
|-3~~-------0~~-------3~~-------/10-9-0~~-------1-|
|-3~~-------0~~-------3~~-------/10-9-0~~-------1-|

Middle 8

|-------------------------------------------|
|-------------------------------------------|
|-------------------------------------------|
|-4-3-0-0-5-3-0-0-2-3-0-3-0-0-4-0-4-0-0-6-0-|
|-4-3-0-0-5-3-0-0-2-3-0-3-0-0-4-0-4-0-0-6-0-|
|-4-3-0-0-5-3-0-0-2-3-0-3-0-0-4-0-4-0-0-6-0-|
  Play x 8

Outro

|-4-4-4-4-4-/6-6-6-6-6-3-3-3-3-3-|---------------|-4-4-4-4-4-/6-6-6-6-6-|
|-4-4-4-4-4-/6-6-6-6-6-3-3-3-3-3-|---------------|-4-4-4-4-4-/6-6-6-6-6-|
|-3-3-3-3-3-/5-5-5-5-5-2-2-2-2-2-|---------------|-3-3-3-3-3-/5-5-5-5-5-|
|-1-1-1-1-1-/3-3-3-3-3-0-0-0-0-0-|-3-0-0-3-0-0-0-|-1-1-1-1-1-/3-3-3-3-3-|
|-1-1-1-1-1-/3-3-3-3-3-0-0-0-0-0-|-3-0-0-3-0-0-0-|-1-1-1-1-1-/3-3-3-3-3-|
|-1-1-1-1-1-/3-3-3-3-3-0-0-0-0-0-|-3-0-0-3-0-0-0-|-1-1-1-1-1-/3-3-3-3-3-|
  Play x 3                       |

|------------------------------------------|
|------------------------------------------|
|------------------------------------------|
|-4-3-0-0-5-3-0-0-2-3-0-3-0-0-4-0-4-0-0-6\-|
|-4-3-0-0-5-3-0-0-2-3-0-3-0-0-4-0-4-0-0-6\-|
|-4-3-0-0-5-3-0-0-2-3-0-3-0-0-4-0-4-0-0-6\-|

Contact me if you have any comments about this tab.
Comments