Helmet - Give It Chords & Tabs

 

Give It Chords & Tabs

Helmet Chords & Tabs

Version: 1 Type: Tab 0 ratings
1 star 2 stars 3 stars 4 stars 5 stars
comments

Give It Tab

   
Artist: Helmet
Album: Meantime
Song: Give it
Tabbed By: Simon Robson



Intro

D-12-10-9-5
A-12-10-9-5
D-12-10-9-5

D-0--0-0-3-0-0-0-----------0--0-0-3-0-0-3-2--3-4--6
A-0--0-0-3-0-0-0---2-3-2---0--0-0-3-0-0-3-2--3-4--6
D-0--0-0-3-0-0-0---4-5-4---0--0-0-3-0-0-3-2--3-4--6
G------------------4-5-4---------------------------

D-0--0-0-3-0-0-0-----------0--0-0-3-0-0-3-2--3-4--6
A-0--0-0-3-0-0-0---2/3-3---0--0-0-3-0-0-3-2--3-4--6
D-0--0-0-3-0-0-0---4/5-5---0--0-0-3-0-0-3-2--3-4--6
G------------------4/5-5---------------------------

Chorus

D-0--0-0-12-0-0-10-0-0-10--3-2
A-0--0-0-12-0-0-10-0-0-10--3-2
D-0--0-0-12-0-0-10-0-0-10--3-2

D-0--0-0-12-0-0-10-0-0-2-3--8
A-0--0-0-12-0-0-10-0-0-2-3--8
D-0--0-0-12-0-0-10-0-0-2-3--8
[ Tab from: http://www.guitartabs.cc/tabs/h/helmet/give_it_tab.html ]
D-0--0-0-12-0-0-10-0-0-10--3-2
A-0--0-0-12-0-0-10-0-0-10--3-2
D-0--0-0-12-0-0-10-0-0-10--3-2

D-0--0-0-12-0-0-0^10--10--10-10--10--10-10--10--10-10-10
A-0--0-0-12-0-0-0^10--10--10-10--10--10-10--10--10-10-10
D-0--0-0-12-0-0-0^10--10--10-10--10--10-10--10--10-10-10

Solo

D-0-0--2-4--6-8
A-0-0--2-4--6-8
D-0-0--2-4--6-8

G-7^5-7--7^5-7--7^5-7--7^5-7(8-7)-5-7

G-7/9!------9(11)

I don't know all this fast stuff right here

D-0--0-0-3-0-0-0---0-3-0-3---0--0-0-3-0-0-3-2--3-2--3
A-0--0-0-3-0-0-0---0-3-0-3---0--0-0-3-0-0-3-2--3-2--3
D-0--0-0-3-0-0-0---0-3-0-3---0--0-0-3-0-0-3-2--3-2--3

This part is going on in the background:

D--------
A--------
D-3^0^3^0
G-3^0^3^0
B-3^0^3^0
E--------

D-----------
A-----------
D-----------
G-5--7------
B-------5--7
E-----------
Comments