Helmet - Gigantor Chords & Tabs

 

Gigantor Chords & Tabs

Helmet Chords & Tabs

Version: 3 Type: Tab 0 ratings
1 star 2 stars 3 stars 4 stars 5 stars
comments

Gigantor Tab

   
-----------------------------------------------------------------------------
                           GIGANTOR - Helmet
-----------------------------------------------------------------------------

Tabbed by an17nin17
Email - c.norman83@ntlworld.com

Drop D Tuning – D, A, D, G, B, E

Intro/Verse

|-5-5-5--5-5-|-8-8-8--8-8--5-5-5--5-5-|
|-5-5-5--5-5-|-8-8-8--8-8--5-5-5--5-5-|
|-7-5-7--7-7-|-101010-1010-7-7-7--7-7-|
|-7-7-7--7-7-|-101010-1010-7-7-7--7-7-|
|-5-5-5--5-5-|-8-8-8--8-8--5-5-5--5-5-|
|-5-5-5--5-5-|-8-8-8--8-8--5-5-5--5-5-|
  Play x 16  | Play x 2

|-8-8-8-8-8-8-8-8-8-8-8-8-8-8--5-5-5-5-5-5-5-5-5-5-5-5-5-5-5-5-|
|-8-8-8-8-8-8-8-8-8-8-8-8-8-8--5-5-5-5-5-5-5-5-5-5-5-5-5-5-5-5-|
|-1010101010101010101010101010-7-7-7-7-7-7-7-7-7-7-7-7-7-7-7-7-|
|-1010101010101010101010101010-7-7-7-7-7-7-7-7-7-7-7-7-7-7-7-7-|
|-8-8-8-8-8-8-8-8-8-8-8-8-8-8--5-5-5-5-5-5-5-5-5-7-7-7-7-7-7-7-|
|-8-8-8-8-8-8-8-8-8-8-8-8-8-8--5-5-5-5-5-5-5-5-5-5-5-5-5-5-5-5-|

Verse

|-----------------------------------------------------------------|
|-----------------------------------------------------------------|
|-----------------------------------------------------------------|
|-7-7-7-7-7-7-7-7-7-7-7-7-7-7-7-7-10101010101010101010101010101010|
|-5-5-5-5-5-5-5-5-5-5-5-5-5-5-5-5-8-8-8-8-8-8-8-8-8-8-8-8-8-8-8-8-|
|-5-5-5-5-5-5-5-5-5-5-5-5-5-5-5-5-8-8-8-8-8-8-8-8-8-8-8-8-8-8-8-8-|
  Play x 4

|-------------------------------|
|-------------------------------|
|-------------------------------|
|-7-7-7-7-7-7-7-7-7-7-7-7-7-7-7-|
|-5-5-5-5-5-5-5-5-5-5-5-5-5-5-5-|
|-5-5-5-5-5-5-5-5-5-5-5-5-5-5-5-|

Pre – Chorus

|--------------------------|----------------------|
|--------------------------|----------------------|
|--------------------------|----------------------|
|-10-10-10-10-10-8-8-8-8-8-|-10-10-10-10-10-8---7-|
|-10-10-10-10-10-8-8-8-8-8-|-10-10-10-10-10-8---5-|
|-10-10-10-10-10-8-8-8-8-8-|-10-10-10-10-10-8---5-|
  Play x 2

Chorus
[ Tab from: http://www.guitartabs.cc/tabs/h/helmet/gigantor_tab_ver_3.html ]
|--------------|--------------|--------------|
|--------------|-6-6-6--6-6-6-|-8-8-8--8-8-8-|
|--------------|-5-5-5--5-5-5-|-7-7-7--7-7-7-|
|-7-7-7--7-7-7-|-5-5-5--5-5-5-|-7-7-7--7-7-7-|
|-5-5-5--5-5-5-|-5-5-5--5-5-5-|-7-7-7--7-7-7-|
|-5-5-5--5-5-5-|-5-5-5--5-5-5-|-7-7-7--7-7-7-|
  Play x 2     | Play x 2     | Play x 2


Solo

|-----------------------|-------------------------------------|
|-----------------------|-------------------------------------|
|-----------------------|-------------------------------------|
|-5-x-x-5-8--0--3-x-x-4-|-0-12-12-12-12-11-10-10-10-8-x-8-x-8-|
|-5-x-x-5-8--0--3-x-x-4-|-0-12-12-12-12-11-10-10-10-8-x-8-x-8-|
|-5-x-x-5-8--0--3-x-x-4-|-0-12-12-12-12-11-10-10-10-8-x-8-x-8-|
  Play x 16             | Play x 4

|-----------------------------------------------------------------|
|-----------------------------------------------------------------|
|-----------------------------------------------------------------|
|-7-7-7-7-7-7-7-7-7-7-7-7-7-7-7-7-10101010101010101010101010101010|
|-5-5-5-5-5-5-5-5-5-5-5-5-5-5-5-5-8-8-8-8-8-8-8-8-8-8-8-8-8-8-8-8-|
|-5-5-5-5-5-5-5-5-5-5-5-5-5-5-5-5-8-8-8-8-8-8-8-8-8-8-8-8-8-8-8-8-|
  Play x 4

|-----------------|
|-----------------|
|-----------------|
|-8-8-8-8-8-8-8-8-|
|-8-8-8-8-8-8-8-8-|
|-8-8-8-8-8-8-8-8-|
  Play x 4

|-----------------------------------------------------------------|
|-----------------------------------------------------------------|
|-----------------------------------------------------------------|
|-7-7-7-7-7-7-7-7-7-7-7-7-7-7-7-7-10101010101010101010101010101010|
|-5-5-5-5-5-5-5-5-5-5-5-5-5-5-5-5-8-8-8-8-8-8-8-8-8-8-8-8-8-8-8-8-|
|-5-5-5-5-5-5-5-5-5-5-5-5-5-5-5-5-8-8-8-8-8-8-8-8-8-8-8-8-8-8-8-8-|
  Play x 4

|-------------------------|
|-------------------------|
|-------------------------|
|-10-10-10-10-10-10-10-10-|
|-10-10-10-10-10-10-10-10-|
|-10-10-10-10-10-10-10-10-|
  Play x 4

Outro

|-----------------------|
|-----------------------|
|-----------------------|
|-5-x-x-5-8--0--3-x-x-4-|
|-5-x-x-5-8--0--3-x-x-4-|
|-5-x-x-5-8--0--3-x-x-4-|
  Play x 32

And That's It

Contact me if you have any comments about this tab.
Comments