Helmet - Gigantor Chords & Tabs

 

Gigantor Chords & Tabs

Helmet Chords & Tabs

Version: 1 Type: Tab 0 ratings
1 star 2 stars 3 stars 4 stars 5 stars
comments

Gigantor Tab

Gigantor - Helmet
Transcribed by Broc West

Intro
|-----------------------------------------------------------------------------------|
|-----------------------------------------------------------------------------------|
|-----------------------------------------------------------------------------------|
|--5555555555555555555555555555555555555555555--------------------------------------|
|--5555555555555555555555555555555555555555555--------------------------------------|
|--5555555555555555555555555555555555555555555---just strum with the drums
          gigantor.........gigantor..........gigantor....

Verse
|-----------------------------------------------------------------------------------------|
|-----------------------------------------------------------------------------------------|
|-----------------------------------------------------------------------------------------|
|--55555555/88888888\55555555/88888888----------------------------------------------------|
|--55555555/88888888\55555555/88888888----------------------------------------------------|
|--55555555/88888888\55555555/88888888---------and so forth........
       gigantor is a spaced aged robot.......
[ Tab from: http://www.guitartabs.cc/tabs/h/helmet/gigantor_tab.html ]
Verse
|--------------------------------------------------------------------------------|
|--------------------------------------------------------------------------------|
|--------------------------------------------------------------------------------|
|--- 1010101010101010\888888888/1010101010101010\8888888888----------------------|
|--- 1010101010101010\888888888/1010101010101010\8888888888----------------------|
|--- 1010101010101010\888888888/1010101010101010\8888888888----------------------|
	he's bigger than big, stronger than strong.............
Chorus
|----------------------------------------------------------------------------------------|
|----------------------------------------------------------------------------------------|
|----------------------------------------------------------------------------------------|
|--5-xx-7h8-0-3-xx-4h5----5-xx-7h8-0-3-xx-4h5----5-xx-7h8-0-3-xx-4h5---------------------|
|--5-xx-7h8-0-3-xx-4h5----5-xx-7h8-0-3-xx-4h5----5-xx-7h8-0-3-xx-4h5---------------------|
|--5-xx-7h8-0-3-xx-4h5----5-xx-7h8-0-3-xx-4h5----5-xx-7h8-0-3-xx-4h5---------------------|

Bridge
|------------------------------------------------------------------------------------------------|
|------------------------------------------------------------------------------------------------|
|------------------------------------------------------------------------------------------------|
|--0-----0h12-11-10-10-10-10-10p0----------------------------------------------------------------|
|--0-----0h12-11-10-10-10-10-10p0----------------------------------------------------------------|
|--0-----0h12-11-10-10-10-10-10p0----x4----------------------------------------------------------|

after bridge
|-----------------------------------------------------------------------------|
|-----------------------------------------------------------------------------|
|-----------------------------------------------------------------------------|
|--55555555/88888888\55555555/88888888---11111111111111/33333333333-----------|
|--55555555/88888888\55555555/88888888---11111111111111/33333333333-----------|
|--55555555/88888888\55555555/88888888---11111111111111/33333333333-----------|
         gigantor...gigantor............ gigantor...gigantor........... gigantor...gigantor...........

keep the chorus goin for ages and you should have it

Comments