Helmet - Diet Aftertaste Chords & Tabs

 

Diet Aftertaste Chords & Tabs

Helmet Chords & Tabs

Version: 3 Type: Tab 0 ratings
1 star 2 stars 3 stars 4 stars 5 stars
comments

Diet Aftertaste Tab

   
-----------------------------------------------------------------------------
                      DIET AFTERTASTE - Helmet
-----------------------------------------------------------------------------

Tabbed by an17nin17
Email - c.norman83@ntlworld.com

Drop D Tuning - D, A, D, G, B, E

Intro

|------------6--6-|-----------------------|
|------------6--6-|-----------------------|
|------------5--5-|-----------------------|
|-3--0--12-0h3--3-|-3--0--12-0h3--3--10~~-|
|-3--0--12-0h3--3-|-3--0--12-0h3--3--10~~-|
|-3--0--12-0h3--3-|-3--0--12-0h3--3--10~~-|

Verse

|--------------------------------------------------------------|
|--------------------------------------------------------------|
|--------------------------------------------------------------|
|-3--0--12-0h3--3-3-3-3-3-3-3-3-8-8-8-8-8-8-8-8-6-6-6-6-6-6-5/-|
|-3--0--12-0h3--3-3-3-3-3-3-3-3-8-8-8-8-8-8-8-8-6-6-6-6-6-6-5/-|
|-3--0--12-0h3--3-3-3-3-3-3-3-3-8-8-8-8-8-8-8-8-6-6-6-6-6-6-5/-|

|-----------------|-----------------------------------------------|
|-----------------|-----------------------------------------------|
|-----------------|-----------------------------------------------|
|-3--0--12-0h3--3-|-3--0--12-0h3--3-3-3-3-3-3-3-3-8-8-8-8-8-8-8-8-|
|-3--0--12-0h3--3-|-3--0--12-0h3--3-3-3-3-3-3-3-3-8-8-8-8-8-8-8-8-|
|-3--0--12-0h3--3-|-3--0--12-0h3--3-3-3-3-3-3-3-3-8-8-8-8-8-8-8-8-|
  Play x 6        |

|----------------|
|----------------|
|----------------|
|-6-6-6-6-6-6-5/-|
|-6-6-6-6-6-6-5/-|
|-6-6-6-6-6-6-5/-|

Chorus
[ Tab from: http://www.guitartabs.cc/tabs/h/helmet/diet_aftertaste_tab_ver_3.html ]
|-------------------------------|
|-------------------------------|
|-------------------------------|
|-0--3--0--0--12--0-0-3-3--1--0-|
|-0--3--0--0--12--0-0-3-3--1--0-|
|-0--3--0--0--12--0-0-3-3--1--0-|
                                                    
|-----------------|-----------------------|-----------------|
|-----------------|-----------------------|-----------------|
|-----------------|-----------------------|-----------------|
|-3--0--12-0h3--3-|-3--0--12-0h3--3--10~~-|-3--0--12-0h3--3-|
|-3--0--12-0h3--3-|-3--0--12-0h3--3--10~~-|-3--0--12-0h3--3-|
|-3--0--12-0h3--3-|-3--0--12-0h3--3--10~~-|-3--0--12-0h3--3-|
                                          | Play x 3

|-----------------------|-----------------------------------------|
|-----------------------|-----------------------------------------|
|-----------------------|-----------------------------------------|
|-3--0--12-0h3--3--10~~-|-3--0--12-0h3--3-3-3-3-3-3-3-3-8-8-8-8-8-|
|-3--0--12-0h3--3--10~~-|-3--0--12-0h3--3-3-3-3-3-3-3-3-8-8-8-8-8-|
|-3--0--12-0h3--3--10~~-|-3--0--12-0h3--3-3-3-3-3-3-3-3-8-8-8-8-8-|

|----------------------|
|----------------------|
|----------------------|
|-8-8-8-6-6-6-6-6-6-5/-|
|-8-8-8-6-6-6-6-6-6-5/-|
|-8-8-8-6-6-6-6-6-6-5/-|

Middle 8
                              1,2,3,4,5,6,7|                        8|
|----------------------|-------------------|-------------------------|
|----------------------|-------------------|-------------------------|
|----------------------|-------------------|-------------------------|
|-0-10-12--12-12-10-10-|-3-3-3-5-5-5-5-3-0-|-3-3-3-3-3-3-3-3-3-3-3-3-|
|-0-10-12--12-12-10-10-|-3-3-3-5-5-5-5-3-0-|-3-3-3-3-3-3-3-3-3-3-3-3-|
|-0-10-12--12-12-10-10-|-3-3-3-5-5-5-5-3-0-|-3-3-3-3-3-3-3-3-3-3-3-3-|

Solo

|---------------------------------|---------------------------------------|
|---------------------------------|---------------------------------------|
|---------------------------------|---------------------------------------|
|-0-3-5-5-5-3-3-5---3-3-5-5-3-5-0-|-7-7-7-7-7-7-7-7---3-3-3-3-3-3-3-3-3-3-|
|-0-3-5-5-5-3-3-5---3-3-5-5-3-5-0-|-7-7-7-7-7-7-7-7---3-3-3-3-3-3-3-3-3-3-|
|-0-3-5-5-5-3-3-5---3-3-5-5-3-5-0-|-7-7-7-7-7-7-7-7---3-3-3-3-3-3-3-3-3-3-|
  Play x 8                        | Play x 2

Outro
                              1,2,3,4,5,6,7|                        8|
|----------------------|-------------------|-------------------------|
|----------------------|-------------------|-------------------------|
|----------------------|-------------------|-------------------------|
|-0-10-12--12-12-10-10-|-3-3-3-5-5-5-5-3-0-|-3-3-3-3-3-3-3-3-3-3-3-3-|
|-0-10-12--12-12-10-10-|-3-3-3-5-5-5-5-3-0-|-3-3-3-3-3-3-3-3-3-3-3-3-|
|-0-10-12--12-12-10-10-|-3-3-3-5-5-5-5-3-0-|-3-3-3-3-3-3-3-3-3-3-3-3-|

Contact me if you have any comments about this tab.
Comments