Helmet - Betty Chords & Tabs

 

Betty Chords & Tabs

Helmet Chords & Tabs

Version: 1 Type: Tab 0 ratings
1 star 2 stars 3 stars 4 stars 5 stars
comments

Betty Tab

   
-----------------------------------------------------------------------------
                            BETTY - Helmet
-----------------------------------------------------------------------------

Note : I think there is a tab book for this album, but it is very rare,
and I don't have it.

Songs 1 - 5, 7 - 11, 13, 14, 16 and 17  1994 Page Hamilton
Songs 6 and 15  1994 Henry Bogdan And Page Hamilton
Song 12  1931/1959 Young, King, Van Alstyne And Gillespie

All Tabs by an17nin17
Email - c.norman83@ntlworld.com

Track Listing - 

1 - Wilma’s Rainbow
2 - I Know
3 - Biscuits For Smut
4 - Milquetoast
5 - Tic
6 - Rollo
7 - Street Crab
8 - Flushings
9 - Clean
10- Vaccination
11- Thick
12- Beautiful Love
13- Speechless
14- Pariah
15- The Silver Hawaiian
16- Overrated
17- Sam Hell

Note – This is the full version of the Betty album without the live tracks.





1 – Wilma’s Rainbow

Drop D Tuning – D, A, D, G, B, E

Intro

|-------7~~-|----------7~~---------7~~-------------7~~-|
|-------7~~-|----------7~~---------7~~-------------7~~-|
|-------6~~-|----------6~~---------6~~-------------6~~-|
|-----------|------------------------------------------|
|-----------|------------------------------------------|
|-<6>-0-----|-<6><6>-0-----<6>--0--------<6>---0-------|
  Play x 4  |

|----------------------|----------|
|----------------------|----------|
|----------------------|----------|
|-0--0-4h5-0-0-3^-0-3^-|-0--0-4h5-|
|-0--0-4h5-0-0-3^-0-3^-|-0--0-4h5-|
|-0--0-4h5-0-0-3^-0-3^-|-0--0-4h5-|
  Play x 5             |

Verse
                                1,3,5|              2,4,6|
|----------------|-------------------|-------------------|---------|
|----------------|-------------------|-------------------|---------|
|----------------|-------------------|-------------------|---------|
|-3-0-3--0-3-0-3-|-0-3-0-3--0-3-0-5^-|-0-3-0-5^--0-3-5-0-|-0-3-5-3-|
|-3-0-3--0-3-0-3-|-0-3-0-3--0-3-0-5^-|-0-3-0-5^--0-3-5-0-|-0-3-5-3-|
|-3-0-3--0-3-0-3-|-0-3-0-3--0-3-0-5^-|-0-3-0-5^--0-3-5-0-|-0-3-5-3-|

Chorus
                     1,3|      2|
|---------------|-------|-------|
|---------------|-------|-------|
|---------------|-------|-------|
|-0---0-/-1---1-|-4---4-|-6---6-|
|-0---0-/-1---1-|-4---4-|-6---6-|
|-0---0-/-1---1-|-4---4-|-6---6-|

Post – Chorus
                                    1|                                2|
|----------------|-------------------|---------------------------------|
|----------------|-------------------|---------------------------------|
|----------------|-------------------|---------------------------------|
|-3-0-3--0-3-0-3-|-0-3-0-3--0-3-0-5^-|-0-3-0-5^--0-1-0-0-1-0-0-1-0-0-1-|
|-3-0-3--0-3-0-3-|-0-3-0-3--0-3-0-5^-|-0-3-0-5^--0-1-0-0-1-0-0-1-0-0-1-|
|-3-0-3--0-3-0-3-|-0-3-0-3--0-3-0-5^-|-0-3-0-5^--0-1-0-0-1-0-0-1-0-0-1-|
                                                     PM…   PM…   PM…

                                1,3,5|              2,4,6|
|----------------|-------------------|-------------------|---------|
|----------------|-------------------|-------------------|---------|
|----------------|-------------------|-------------------|---------|
|-3-0-3--0-3-0-3-|-0-3-0-3--0-3-0-5^-|-0-3-0-5^--0-3-5-0-|-0-3-5-3-|
|-3-0-3--0-3-0-3-|-0-3-0-3--0-3-0-5^-|-0-3-0-5^--0-3-5-0-|-0-3-5-3-|
|-3-0-3--0-3-0-3-|-0-3-0-3--0-3-0-5^-|-0-3-0-5^--0-3-5-0-|-0-3-5-3-|

                     1,3|      2|
|---------------|-------|-------|
|---------------|-------|-------|
|---------------|-------|-------|
|-0---0-/-1---1-|-4---4-|-6---6-|
|-0---0-/-1---1-|-4---4-|-6---6-|
|-0---0-/-1---1-|-4---4-|-6---6-|

Middle 8

|----------------------|-6~~-------------|
|----------------------|-6~~-------------|
|----------------------|-5~~-------------|
|-0--0-4h5-0-0-3^-0-3^-|-3~~-----0-3-5-3-|
|-0--0-4h5-0-0-3^-0-3^-|-3~~-----0-3-5-3-|
|-0--0-4h5-0-0-3^-0-3^-|-3~~-----0-3-5-3-|
  Play x 7             |

                     1,3|      2|
|---------------|-------|-------|
|---------------|-------|-------|
|---------------|-------|-------|
|-0---0-/-1---1-|-4---4-|-6---6-|
|-0---0-/-1---1-|-4---4-|-6---6-|
|-0---0-/-1---1-|-4---4-|-6---6-|

|----------------------|---------------------|----------------------|
|----------------------|---------------------|----------------------|
|----------------------|---------------------|----------------------|
|-0--0-4h5-0-0-3^-0-3^-|-3-5-x-3-5-0-0-3-3-0-|-0--0-4h5-0-0-3^-0-3^-|
|-0--0-4h5-0-0-3^-0-3^-|-3-5-x-3-5-0-0-3-3-0-|-0--0-4h5-0-0-3^-0-3^-|
|-0--0-4h5-0-0-3^-0-3^-|-3-5-x-3-5-0-0-3-3-0-|-0--0-4h5-0-0-3^-0-3^-|
  Play x 7             |                     | Play x 8

Outro

|--------------------------------|
|--------------------------------|
|--------------------------------|
|-0--3-5-0-3-5-0-0-3-3-0-3-3-4~~-|
|-0--3-5-0-3-5-0-0-3-3-0-3-3-0~~-|
|-0--3-5-0-3-5-0-0-3-3-0-3-3-0~~-|






2 – I Know

Drop C# Tuning – C#, G#, C#, F#, A#, D#

Intro

|-------|-------------------------------------------------------------|
|-DRUMS-|-----5-5-5-5-------0~~-------5~~---------0~~-------------5~~-|
|-------|-----5-5-5-5-------0~~-------5~~---------0~~-------------5~~-|
|-------|-3~~-5-5-5-5---0~~-0~~---3~~-5~~---4-3-0-0~~---2h3-3-3-3-5~~-|
|-ONLY--|-3~~-----------0~~-------3~~-------4-3-0-------2h3-3-3-3-----|
|-------|-3~~-----------0~~-------3~~-------4-3-0-------2h3-3-3-3-----|

|----------------------------|------------------|---------|------------|
|--------------0~~-----------|------------------|---------|------------|
|--------------0~~-----------|------------------|---------|------------|
|-5-4-3-0--0~~-0~~---1~~---0-|<3><3><3><3><3><3>|<4><4><4>|<3><3><4><4>|
|-5-4-3-0--0~~-------1~~---0-|<3><3><3><3><3><3>|<4><4><4>|<3><3><4><4>|
|-5-4-3-0--0~~-------1~~---0-|<3><3><3><3><3><3>|<4><4><4>|<3><3><4><4>|
                             | Play x 10        |         | Play x 3

Verse

|---------|-----------|-------|-------------------|
|---------|-----------|-------|-------------------|
|---------|-----------|-------|-------------------|
|-4-3-0-0-|-0-4-3-0-0-|-0-0-0-|-0-4-3-0-0-2-3-2-0-|
|-4-3-0-0-|-0-4-3-0-0-|-0-0-0-|-0-4-3-0-0-2-3-2-0-|
|-4-3-0-0-|-0-4-3-0-0-|-0-0-0-|-0-4-3-0-0-2-3-2-0-|
          | Play x 16 |

Chorus

|-------------------------------------------------|
|-----5~~-------0~~-------5~~-------------0~~-----|
|-----5~~-------0~~-------5~~-------------0~~-----|
|-3~~-5~~---0~~-0~~---3~~-5~~---/10-9-0~~-0~~---1-|
|-3~~-------0~~-------3~~-------/10-9-0~~-------1-|
|-3~~-------0~~-------3~~-------/10-9-0~~-------1-|

|---------|-----------|---------|-----------|----------------------|
|---------|-----------|---------|-----------|----------------------|
|---------|-----------|---------|-----------|----------------------|
|-4-3-0-0-|-0-4-3-0-0-|-5-3-0-0-|-0-4-3-0-0-|-12-10-0-10-0-0-10-12-|
|-4-3-0-0-|-0-4-3-0-0-|-5-3-0-0-|-0-4-3-0-0-|-12-10-0-10-0-0-10-12-|
|-4-3-0-0-|-0-4-3-0-0-|-5-3-0-0-|-0-4-3-0-0-|-12-10-0-10-0-0-10-12-|
          | Play x 6  |         | Play x 8  |

|-------------------------------------------------|
|-----5~~-------0~~-------5~~-------------0~~-----|
|-----5~~-------0~~-------5~~-------------0~~-----|
|-3~~-5~~---0~~-0~~---3~~-5~~---/10-9-0~~-0~~---1-|
|-3~~-------0~~-------3~~-------/10-9-0~~-------1-|
|-3~~-------0~~-------3~~-------/10-9-0~~-------1-|

Middle 8

|-------------------------------------------|
|-------------------------------------------|
|-------------------------------------------|
|-4-3-0-0-5-3-0-0-2-3-0-3-0-0-4-0-4-0-0-6-0-|
|-4-3-0-0-5-3-0-0-2-3-0-3-0-0-4-0-4-0-0-6-0-|
|-4-3-0-0-5-3-0-0-2-3-0-3-0-0-4-0-4-0-0-6-0-|
  Play x 8

Outro

|-4-4-4-4-4-/6-6-6-6-6-3-3-3-3-3-|---------------|-4-4-4-4-4-/6-6-6-6-6-|
|-4-4-4-4-4-/6-6-6-6-6-3-3-3-3-3-|---------------|-4-4-4-4-4-/6-6-6-6-6-|
|-3-3-3-3-3-/5-5-5-5-5-2-2-2-2-2-|---------------|-3-3-3-3-3-/5-5-5-5-5-|
|-1-1-1-1-1-/3-3-3-3-3-0-0-0-0-0-|-3-0-0-3-0-0-0-|-1-1-1-1-1-/3-3-3-3-3-|
|-1-1-1-1-1-/3-3-3-3-3-0-0-0-0-0-|-3-0-0-3-0-0-0-|-1-1-1-1-1-/3-3-3-3-3-|
|-1-1-1-1-1-/3-3-3-3-3-0-0-0-0-0-|-3-0-0-3-0-0-0-|-1-1-1-1-1-/3-3-3-3-3-|
  Play x 3                       |

|------------------------------------------|
|------------------------------------------|
|------------------------------------------|
|-4-3-0-0-5-3-0-0-2-3-0-3-0-0-4-0-4-0-0-6\-|
|-4-3-0-0-5-3-0-0-2-3-0-3-0-0-4-0-4-0-0-6\-|
|-4-3-0-0-5-3-0-0-2-3-0-3-0-0-4-0-4-0-0-6\-|






3 – Biscuits For Smut

Tuning - Low to High - A, A, A, A, G, C# 
 
Intro 

|----------------------------------| 
|--------------0-------0-------0---| 
|-<12><12><12><12><12><12><12><12>-| 
|-<12><12><12><12><12><12><12><12>-| 
|-<12><12><12><12><12><12><12><12>-| 
|-<12><12><12><12><12><12><12><12>-| 
Play x 4 

Main Riff 

|-----------------------|------------------------|-----------------------| 
|-----------------------|------------------------|-----------------------| 
|-----------------------|------------------------|-----------------------| 
|-----------------------|------------------------|-----------------------| 
|-0-0-0-/10-0-0-3^-0-3^-|-0-0-0-/10-0-0-3^-0-3h5-|-0-0-0-/10-0-0-3^-0-3^-| 
|-0-0-0-/10-0-0-3^-0-3^-|-0-0-0-/10-0-0-3^-0-3h5-|-0-0-0-/10-0-0-3^-0-3^-| 
  Play x 12             | Play x 4               | Play x 8 

Pre-Solo 

|--------------------| 
|--------------------| 
|--------------------| 
|-/5-5-5-5-5-5---5-5-| 
|-/5-5-5-5-5-5---5-5-| 
|-/5-5-5-5-5-5---5-5-| 
  Play x 4 

Solo - I've only tabbed the rhythm because like all helmet solo's
they're just mental freak - outs. 

|-----------------------| 
|-----------------------| 
|-----------------------| 
|-----------------------| 
|-0-0-0-/10-0-0-3^-0-3^-| 
|-0-0-0-/10-0-0-3^-0-3^-| 
  Play x 8 

Post-solo 

|-------------------------------------|----------------------------------| 
|-------------------------------------|--------------0-------0-------0---| 
|-------------------------------------|-<12><12><12><12><12><12><12><12>-| 
|-------------------------------------|-<12><12><12><12><12><12><12><12>-| 
|-0-0-/12-0-7--5--7-5-0--/3-3-3/5-5-5-|-<12><12><12><12><12><12><12><12>-| 
|-0-0-/12-0-7--5--7-5-0--/3-3-3/5-5-5-|-<12><12><12><12><12><12><12><12>-| 
  Play x 4                            | Play x 4 

Outro 

|-----------------------|-----------0-------------| 
|-----------------------|-------------0~~---------| 
|-----------------------|-0~~---------------------| 
|-----------------------|-0~~---/-----------------| 
|-0-0-0-/10-0-0-3^-0-3^-|-0~~---/-----------0---0-| 
|-0-0-0-/10-0-0-3^-0-3^-|-0~~---------------0---0-| 
  Repeat until the end  |                       ^ W/Bar






4 – Milquetoast

Tuning - D, A, D, G, B, E

Intro

|---------------------|-------------------------|
|---------------------|-------------------------|
|---------------------|-------------------------|
|-6--0-0-6--0-0--3--4-|-5-5-/3-2-0-/5-5-5-3-2-0-|
|-6--0-0-6--0-0--3--4-|-5-5-/3-2-0-/5-5-5-3-2-0-|
|-6--0-0-6--0-0--3--4-|-5-5-/3-2-0-/5-5-5-3-2-0-|
     PM.    PM.       | Play x 8

Verse

|------|---------------------------------|------|
|-BASS-|-0-0-0-0-0-0-0-0-0-0-0-0-0-0-0-0-|-BASS-|
|------|-0-0-0-0-0-0-0-0-0-0-0-0-0-0-0-0-|------|
|-ONLY-|-3-3-3-3-3-3-3-3-3-3-3-3-3-3-3-3-|-ONLY-|
|------|-3-3-3-3-3-3-3-3-3-3-3-3-3-3-3-3-|------|
|------|-3-3-3-3-3-3-3-3-3-3-3-3-3-3-3-3-|------|

Chorus

|------------------------------------------|
|------------------------------------------|
|------------------------------------------|
|-0-0-0-2-3----0-0-0-2-3-5--3----0-0-0-2-3-|
|-0-0-0-2-3----0-0-0-2-3-5--3----0-0-0-2-3-|
|-0-0-0-2-3----0-0-0-2-3-5--3----0-0-0-2-3-|

Verse
                                     1,3|           2|           4|
|--------------------------|------------|------------|------------|
|--------------------------|------------|------------|------------|
|--------------------------|------------|------------|------------|
|-0--0-2---0--0-2---0--0-2-|-0--3-2-0-2-|-0--5-3-0-2-|-5-5-/3-2-0-|
|-0--0-2---0--0-2---0--0-2-|-0--3-2-0-2-|-0--5-3-0-2-|-5-5-/3-2-0-|
|-0--0-2---0--0-2---0--0-2-|-0--3-2-0-2-|-0--5-3-0-2-|-5-5-/3-2-0-|

|---------------------------------|-------------------------------------|
|-0-0-0-0-0-0-0-0-0-0-0-0-0-0-0-0-|-------------------------------------|
|-0-0-0-0-0-0-0-0-0-0-0-0-0-0-0-0-|-------------------------------------|
|-3-3-3-3-3-3-3-3-3-3-3-3-3-3-3-3-|-0--0-2---0--0-2---0--0-2---0--3-2-0-|
|-3-3-3-3-3-3-3-3-3-3-3-3-3-3-3-3-|-0--0-2---0--0-2---0--0-2---0--3-2-0-|
|-3-3-3-3-3-3-3-3-3-3-3-3-3-3-3-3-|-0--0-2---0--0-2---0--0-2---0--3-2-0-|
                                  | Play x 2

|------------------------------------------------------------------|
|------------------------------------------------------------------|
|------------------------------------------------------------------|
|-0-0-0-2-3----0-0-0-2-3-5--3----0-0-0-2-3----/10--10--5-5-0-3-2-0-|
|-0-0-0-2-3----0-0-0-2-3-5--3----0-0-0-2-3----/10--10--5-5-0-3-2-0-|
|-0-0-0-2-3----0-0-0-2-3-5--3----0-0-0-2-3----/10--10--5-5-0-3-2-0-|

Middle 8

|-------------------------|
|-------------------------|
|-------------------------|
|-5-5-/3-2-0-/5-5-5-3-2-0-|
|-5-5-/3-2-0-/5-5-5-3-2-0-|
|-5-5-/3-2-0-/5-5-5-3-2-0-|
  Play x 8                

|------------------------------------------------------------|
|------------------------------------------------------------|
|------------------------------------------------------------|
|-3-5-0-3--5-5-3-5-0-3--5-5-3-5-0-3--5-5-3-5-0-/10-10-8-10-8-|
|-3-5-0-3--5-5-3-5-0-3--5-5-3-5-0-3--5-5-3-5-0-/10-10-8-10-8-|
|-3-5-0-3--5-5-3-5-0-3--5-5-3-5-0-3--5-5-3-5-0-/10-10-8-10-8-|
  Play x 2

|------------------------------------------------------------|
|------------------------------------------------------------|
|------------------------------------------------------------|
|-3-5-0-3--5-5-3-5-0-3--5-5-3-5-0-3--5-5-3-5-0-/10-10-8-10-8-|
|-3-5-0-3--5-5-3-5-0-3--5-5-3-5-0-3--5-5-3-5-0-/10-10-8-10-8-|
|-3-5-0-3--5-5-3-5-0-3--5-5-3-5-0-3--5-5-3-5-0-/10-10-8-10-8-|
| Guitar 1
|-0-0-0-0-0-0-0-0-0-0-0-0--0-0-0-0-0-0-0-0-0-0-0-0-0-0-0-0-0-|
|-6-6-6-6-6-6-6-6-6-6-6-6-1515151515151515151515151515151515-|
|-5-5-5-5-5-5-5-5-5-5-5-5-1414141414141414141414141414141414-|
|-5-5-5-5-5-5-5-5-5-5-5-5-1212121212121212121212121212121212-|
|-5-5-5-5-5-5-5-5-5-5-5-5-1212121212121212121212121212121212-|
|-5-5-5-5-5-5-5-5-5-5-5-5-1212121212121212121212121212121212-|
  Guitar 2
  Play x 4

|-------------------------------------------------------------------------|
|-------------------------------------------------------------------------|
|-------------------------------------------------------------------------|
|-3-3-3-3-3-3-0-0-0-0-0-0-1-1-1-1-1-1-8-8-8-8-8-8-4-4-4-4-4-4-0-0-0-0-0-0-|
|-3-3-3-3-3-3-0-0-0-0-0-0-1-1-1-1-1-1-8-8-8-8-8-8-4-4-4-4-4-4-0-0-0-0-0-0-|
|-3-3-3-3-3-3-0-0-0-0-0-0-1-1-1-1-1-1-8-8-8-8-8-8-4-4-4-4-4-4-0-0-0-0-0-0-|
| Guitar 1
|-0-0-0-0-0-0-0-0-0-0-0-0-8-8-8-8-8-8-8-8-8-8-8-8-4-4-4-4-4-4-0-0-0-0-0-0-|
|-1010101010101010101010101111111111111111111111117-7-7-7-7-7-101010101010|
|-9-9-9-9-9-9-9-9-9-9-9-9-1010101010101010101010106-6-6-6-6-6-9-9-9-9-9-9-|
|-7-7-7-7-7-7-7-7-7-7-7-7-8-8-8-8-8-8-8-8-8-8-8-8-4-4-4-4-4-4-7-7-7-7-7-7-|
|-------------------------------------------------------------------------|
|-------------------------------------------------------------------------|
  Guitar 2
                         
|-------------------------------------------------------------|
|-------------------------------------------------------------|
|-------------------------------------------------------------|
|-1-1-1-1-1-1-6-6-6-6-6-6-6-6-6-6-6-6-6-6-6-6-6-6-6-6-6-6-6-6-|
|-1-1-1-1-1-1-6-6-6-6-6-6-6-6-6-6-6-6-6-6-6-6-6-6-6-6-6-6-6-6-|  
|-1-1-1-1-1-1-6-6-6-6-6-6-6-6-6-6-6-6-6-6-6-6-6-6-6-6-6-6-6-6-|
| Guitar 1
|-8-8-8-8-8-8-131313131313131313131313131313131313131313131313|
|-111111111111151515151515151515151515151515151515151515151515|
|-101010101010151515151515151515151515151515151515151515151515|
|-8-8-8-8-8-8-131313131313131313131313131313131313131313131313|
|-------------------------------------------------------------|
|-------------------------------------------------------------|
  Guitar 2

Outro

|---------------------------|
|---------------------------|
|---------------------------|
|-0-0-0-0-0-4---0-0-0-0-0-4-|
|-0-0-0-0-0-4---0-0-0-0-0-4-|
|-0-0-0-0-0-4---0-0-0-0-0-4-|
| Guitar 1
|---------------------------|
|---------------------------|
|---------------------------|
|-12121212120---12121212120-|
|-12121212120---12121212120-|
|-12121212120---12121212120-|
  Guitar 2
  Play x 12






5 – Tic

Drop D Tuning – D, A, D, G, B, E

Intro/Verse

|-----------------------|
|-----------------------|
|-----------------------|
|-0--5-0--3---0-0-4-0-0-|
|-0--5-0--3---0-0-4-0-0-|
|-0--5-0--3---0-0-4-0-0-|
  Play x 5

Chorus

|-----------------------------------------------------------------|
|-3-3-3-3-3-3-3-3-3-3-3-3-3-3-3-3-3-3-3-3-3-3-3-3-3-3-3-3-3-3-0~~-|
|-0-0-0-0-0-0-0-0-0-0-0-0-0-0-0-0-0-0-0-0-0-0-0-0-0-0-0-0-0-0-0~~-|
|-3-3-3-3-3-3-3-3-3-3-3-3-3-3-3-3-3-3-3-3-3-3-3-3-3-3-3-3-3-3-3~~-|
|-2-2-2-2-2-2-2-2-2-2-2-2-2-2-2-2-2-2-2-2-2-2-2-2-2-2-2-2-2-2-3~~-|
|-3-3-3-3-3-3-3-3-3-3-3-3-3-3-3-3-3-3-3-3-3-3-3-3-3-3-3-3-3-3-3~~-|
  Play x 2

|-----------------------|---------|-----------------------|
|-----------------------|---------|-----------------------|
|-----------------------|---------|-----------------------|
|-0--5-0--3---0-0-4-0-0-|-x-x-x-x-|-0--5-0--3---0-0-4-0-0-|
|-0--5-0--3---0-0-4-0-0-|-x-x-x-x-|-0--5-0--3---0-0-4-0-0-|
|-0--5-0--3---0-0-4-0-0-|-x-x-x-x-|-0--5-0--3---0-0-4-0-0-|
                                  | Play x 3
                                                                 1,2|
|-------------------------------------------------------------|-----|
|-3-3-3-3-3-3-3-3-3-3-3-3-3-3-3-3-3-3-3-3-3-3-3-3-3-3-3-3-3-3-|-0~~-|
|-0-0-0-0-0-0-0-0-0-0-0-0-0-0-0-0-0-0-0-0-0-0-0-0-0-0-0-0-0-0-|-0~~-|
|-3-3-3-3-3-3-3-3-3-3-3-3-3-3-3-3-3-3-3-3-3-3-3-3-3-3-3-3-3-3-|-3~~-|
|-2-2-2-2-2-2-2-2-2-2-2-2-2-2-2-2-2-2-2-2-2-2-2-2-2-2-2-2-2-2-|-3~~-|
|-3-3-3-3-3-3-3-3-3-3-3-3-3-3-3-3-3-3-3-3-3-3-3-3-3-3-3-3-3-3-|-3~~-|
  Play x 3
                 3|
|-----------------|
|-----------------|
|-----------------|
|-3-3-3-3-3-3-3-3-|
|-3-3-3-3-3-3-3-3-|
|-3-3-3-3-3-3-3-3-|

Solo
                         1,3,5,7|    2,4,6|                  8|
|-----------------------|-------|---------|-------------------|
|-----------------------|-------|---------|-------------------|
|-----------------------|-------|---------|-------------------|
|-0---/12-0-0-10--10-10-|-6-5~~-|-3-3-3-0-|-10-10-10-10-10-10-|
|-0---/12-0-0-10--10-10-|-6-5~~-|-3-3-3-0-|-10-10-10-10-10-10-|
|-0---/12-0-0-10--10-10-|-6-5~~-|-3-3-3-0-|-10-10-10-10-10-10-|

                                                                 1,2|
|-------------------------------------------------------------|-----|
|-3-3-3-3-3-3-3-3-3-3-3-3-3-3-3-3-3-3-3-3-3-3-3-3-3-3-3-3-3-3-|-0~~-|
|-0-0-0-0-0-0-0-0-0-0-0-0-0-0-0-0-0-0-0-0-0-0-0-0-0-0-0-0-0-0-|-0~~-|
|-3-3-3-3-3-3-3-3-3-3-3-3-3-3-3-3-3-3-3-3-3-3-3-3-3-3-3-3-3-3-|-3~~-|
|-2-2-2-2-2-2-2-2-2-2-2-2-2-2-2-2-2-2-2-2-2-2-2-2-2-2-2-2-2-2-|-3~~-|
|-3-3-3-3-3-3-3-3-3-3-3-3-3-3-3-3-3-3-3-3-3-3-3-3-3-3-3-3-3-3-|-3~~-|
  Play x 3
                 3|
|-----------------|
|-----------------|
|-----------------|
|-3-3-3-3-3-3-3-3-|
|-3-3-3-3-3-3-3-3-|
|-3-3-3-3-3-3-3-3-|

Outro

|---------------------------------|
|---------------------------------|
|---------------------------------|
|-0-0-0-0-0-0-0-0-0-0-0-0-0-0-0-0-|
|-0-0-0-0-0-0-0-0-0-0-0-0-0-0-0-0-|
|-0-0-0-0-0-0-0-0-0-0-0-0-0-0-0-0-|
  PM……………………………………………………………………………
  Play x 20











6 – Rollo

Drop D Tuning - D, A, D, G, B, E 
 
Intro 

|-------------------------------------| 
|-------------------------------------| 
|-------------------------------------| 
|-0-0-10-10-10-0---0-0-10-10-10-0-6-0-| 
|-0-0-10-10-10-0---0-0-10-10-10-0-6-0-| 
|-0-0-10-10-10-0---0-0-10-10-10-0-6-0-| 
  Play x 8 

Verse 

|----------------------------------------| 
|----------------------------------------| 
|----------------------------------------| 
|-0-0-0-3-3-3-5---0---0-0-3-3-3-5-3^-5-0-| 
|-0-0-0-3-3-3-5---0---0-0-3-3-3-5-3^-5-0-| 
|-0-0-0-3-3-3-5---0---0-0-3-3-3-5-3^-5-0-| 
  Play x 6 

|-------------------------------------| 
|-------------------------------------| 
|-------------------------------------| 
|-0-0-10-10-10-0---0-0-10-10-10-0-6-0-| 
|-0-0-10-10-10-0---0-0-10-10-10-0-6-0-| 
|-0-0-10-10-10-0---0-0-10-10-10-0-6-0-| 
  Play x 4 

|----------------------------------------| 
|----------------------------------------| 
|----------------------------------------| 
|-0-0-0-3-3-3-5---0---0-0-3-3-3-5-3^-5-0-| 
|-0-0-0-3-3-3-5---0---0-0-3-3-3-5-3^-5-0-| 
|-0-0-0-3-3-3-5---0---0-0-3-3-3-5-3^-5-0-| 
  Play x 4 

Middle 8 

|-------------------------------|-15-15-15-15-15-15/13-13-13-13-13-13-| 
|-------------------------------|-x--x--x--x--x--x--x--x--x--x--x--x--| 
|-10-10-10-10-10-10/5-5-5-5-5-5-|-12-12-12-12-12-12/10-10-10-10-10-10-| 
|-x--x--x--x--x--x-/x-x-x-x-x-x-|-//-//-//-//-//-//-//-//-//-//-//-//-| 
|-8--8--8--8--8--8-/3-3-3-3-3-3-|-------------------------------------| 
|-/--/--/--/--/--/--/-/-/-/-/-/-|-------------------------------------| 
  Play x 2                      | Play x 2 

|-------------------| 
|-------------------|
|-------------------|
|-3p0-3p0-0-0-0-0-0-|
|-3p0-3p0-0-0-0-0-0-|
|-3p0-3p0-0-0-0-0-0-|
  Play x 16 
  PM...............  

|-----------------------------------------------------------------------| 
|-----------------------------------------------------------------------| 
|-----------------------------------------------------------------------| 
|-3p0-3p0-0-0-0-0-0-3p0-3p0-0-0-0-0-0-3p0-3p0-0-0-0-0-0-3-3-5-5-6-5-6-3-| 
|-3p0-3p0-0-0-0-0-0-3p0-3p0-0-0-0-0-0-3p0-3p0-0-0-0-0-0-3-3-5-5-6-5-6-3-|
|-3p0-3p0-0-0-0-0-0-3p0-3p0-0-0-0-0-0-3p0-3p0-0-0-0-0-0-3-3-5-5-6-5-6-3-|
  Play x 4

Outro 

|-------------------------------|-15-15-15-15-15-15/13-13-13-13-13-13-| 
|-------------------------------|-x--x--x--x--x--x--x--x--x--x--x--x--| 
|-10-10-10-10-10-10-5-5-5-5-5-5-|-12-12-12-12-12-12/10-10-10-10-10-10-| 
|-x--x--x--x--x--x--x-x-x-x-x-x-|-//-//-//-//-//-//-//-//-//-//-//-//-| 
|-8--8--8--8--8--8-/3-3-3-3-3-3-|-------------------------------------| 
|-/--/--/--/--/--/--/-/-/-/-/-/-|-------------------------------------| 
Play x 2 | 

|-17-17-17-17-17-17-^---^~~-----| 
|-x--x--x--x--x--x----------0~~-| 
|-14-14-14-14-14-14---------0~~-| 
|-//-//-//-//-//-//---------10~-| 
|---------------------------10~-| 
|---------------------------10~-|





7 – Street Crab

Drop D Tuning – D, A, D, G, B, E

Intro

|--------------------|--------------------------------------------------|
|--------------------|--------------------------------------------------|
|--------------------|--------------------------------------------------|
|----------------0~~-|--------------------------------------------0-----|
|-------2------0-----|-------2------------2------0-------2------0-----0-|
|-0-3p0---3-/6-------|-0-3p0---3~~-0--3p0---3-/5---0-3p0---3-/6-----6---|

|------------------------------------------------------------|
|------------------------------------------------------------|
|--------------------------------------------------------0~~-|
|------------------------------------------------------------|
|---0---0---0-------2------------2------0-------2------0-----|
|-6---6---6---0-3p0---3~~-0--3p0---3-/5---0-3p0---3-/6-------|

Verse
            |                                                1|      2,4|
|-----------|---------------------------------------|---------|---------|
|-----------|---------------------------------------|---------|---------|
|-----------|---------------------------------------|---------|---------|
|-0---3-0-3-|-0-0-0-3-0-3--0-0-0-3-0-3--0-0-0-3-0-3-|-3-3-3-3-|-5-5-5-5-|
|-0---3-0-3-|-0-0-0-3-0-3--0-0-0-3-0-3--0-0-0-3-0-3-|-3-3-3-3-|-5-5-5-5-|
|-0---3-0-3-|-0-0-0-3-0-3--0-0-0-3-0-3--0-0-0-3-0-3-|-3-3-3-3-|-5-5-5-5-|

      3|                                    5|
|------|-------------------------------------|
|------|-------------------------------------|
|------|-------------------------------------|
|-1--2-|-3-3-3-0--2-3--0--2-3--0--2-3--0—3-5-|
|-1--2-|-3-3-3-0--2-3--0--2-3--0--2-3--0—3-5-|
|-1--2-|-3-3-3-0--2-3--0--2-3--0--2-3--0—3-5-|

Chorus
                               1,3,5|          2,4,6|
|---------------------|-------------|---------------|
|---------------------|-------------|---------------|
|---------------------|-------------|---------------|
|-0-0-0-3-0-3--0--0-0-|-3-0-/10-9-0-|-1-0-0-/5--5-6-|
|-0-0-0-3-0-3--0--0-0-|-3-0-/10-9-0-|-1-0-0-/5--5-6-|
|-0-0-0-3-0-3--0--0-0-|-3-0-/10-9-0-|-1-0-0-/5--5-6-|

Post – Chorus

|-----------------------------------------------------------------------|
|-------------------------------------------------------3-3-3-3-3-3-3-3-|
|-------------------------------------------------------3-3-3-3-3-3-3-3-|
|-0-0-0-3-0-3--0-0-0-3-0-3--0-0-0-3-0-3--0-0-0-3-0-5-2--2-2-2-2-2-2-2-2-|
|-0-0-0-3-0-3--0-0-0-3-0-3--0-0-0-3-0-3--0-0-0-3-0-5-2------------------|
|-0-0-0-3-0-3--0-0-0-3-0-3--0-0-0-3-0-3--0-0-0-3-0-5-2------------------|

                                               1,3|    2|
|---------------------------------------|---------|-----|
|---------------------------------------|---------|-----|
|---------------------------------------|---------|-----|
|-0-0-0-3-0-3--0-0-0-3-0-3--0-0-0-3-0-3-|-5-5-5-5-|-1--2-|
|-0-0-0-3-0-3--0-0-0-3-0-3--0-0-0-3-0-3-|-5-5-5-5-|-1--2-|
|-0-0-0-3-0-3--0-0-0-3-0-3--0-0-0-3-0-3-|-5-5-5-5-|-1--2-|

                                     4|
|-------------------------------------|
|-------------------------------------|
|-------------------------------------|
|-3-3-3-0--2-3--0--2-3--0--2-3--0—3-5-|
|-3-3-3-0--2-3--0--2-3--0--2-3--0—3-5-|
|-3-3-3-0--2-3--0--2-3--0--2-3--0—3-5-|
[ Tab from: http://www.guitartabs.cc/tabs/h/helmet/betty_tab.html ]
                             1,3,5,7|          2,4,6|    8|
|---------------------|-------------|---------------|-----|
|---------------------|-------------|---------------|-----|
|---------------------|-------------|---------------|-----|
|-0-0-0-3-0-3--0--0-0-|-3-0-/10-9-0-|-1-0-0-/5--5-6-|-5-5-|
|-0-0-0-3-0-3--0--0-0-|-3-0-/10-9-0-|-1-0-0-/5--5-6-|-5-5-|
|-0-0-0-3-0-3--0--0-0-|-3-0-/10-9-0-|-1-0-0-/5--5-6-|-5-5-|

Middle 8

|-------------------------------------------------------------------------|
|-------------------------------------------------------------------------|
|-------------------------------------------------------------------------|
|-5~~-/7-7-7-7-7-7-0--0-0-0-0-0-1-3-3-3-3-3-3-3-3-3-3-3-3-/10-10-10-10-10-|
|-5~~-/7-7-7-7-7-7-0--0-0-0-0-0-1-3-3-3-3-3-3-3-3-3-3-3-3-/10-10-10-10-10-|
|-5~~-/7-7-7-7-7-7-0--0-0-0-0-0-1-3-3-3-3-3-3-3-3-3-3-3-3-/10-10-10-10-10-|
  Play x 2

|--------------------------------------|
|--------------------------------------|
|--------------------------------------|
|-10-10-10-10-10-10-10-8-8-8-8-8-8-0-0-|
|-10-10-10-10-10-10-10-8-8-8-8-8-8-0-0-|
|-10-10-10-10-10-10-10-8-8-8-8-8-8-0-0-|

Outro

|---------------------------|-------------------------------|-----------|
|---------------------------|-------------------------------|-------0~~-|
|---------------------------|-------------------------------|-------0~~-|
|-5~~-/7-7-7-7-7-7-0--0-0-0-|-0-0-1-3-3-3-3-3-3-3-3-3-3-3-3-|-3-3-3-3~~-|
|-5~~-/7-7-7-7-7-7-0--0-0-0-|-0-0-1-3-3-3-3-3-3-3-3-3-3-3-3-|-3-3-3-3~~-|
|-5~~-/7-7-7-7-7-7-0--0-0-0-|-0-0-1-3-3-3-3-3-3-3-3-3-3-3-3-|-3-3-3-3~~-|
                            | Play x 4                      |






8 – Flushings

Drop D Tuning – D, A, D, G, B, E

Intro

|---------------------|
|---------------------|
|---------------------|
|-0-2p0-1p0-3-2-0-1-2-|
|-0-2p0-1p0-3-2-0-1-2-|
|-0-2p0-1p0-3-2-0-1-2-|
  Play x 16 

Note – Guitar plays this in a very odd time signature now and again 

|-----|
|-3~~-|
|-1~~-|  This fill appears in all of the verses
|-----|
|-----|
|-----|

Chorus

|---------------------------------------|
|---------------------------------------|
|---------------------------------------|
|-0-2-1-0-/6-5-3-5---0-2-1-0-/6-5-3-5~~-|
|-0-2-1-0-/6-5-3-5---0-2-1-0-/6-5-3-5~~-|
|-0-2-1-0-/6-5-3-5---0-2-1-0-/6-5-3-5~~-|
  Play x 4

|---------------------|
|---------------------|
|---------------------|
|-0-2p0-1p0-3-2-0-1-2-|
|-0-2p0-1p0-3-2-0-1-2-|
|-0-2p0-1p0-3-2-0-1-2-|
  Play x 8

|---------------------------------------|
|---------------------------------------|
|---------------------------------------|
|-0-2-1-0-/6-5-3-5---0-2-1-0-/6-5-3-5~~-|
|-0-2-1-0-/6-5-3-5---0-2-1-0-/6-5-3-5~~-|
|-0-2-1-0-/6-5-3-5---0-2-1-0-/6-5-3-5~~-|
  Play x 4

Middle 8

|-------------------|
|-------------------|
|-------------------|
|-2h4-x-4-4-2h4-0-2-|
|-2h4-x-4-4-2h4-0-2-|
|-2h4-x-4-4-2h4-0-2-|
  Play x 12

Outro

|---------------------|-----|
|---------------------|-----|
|---------------------|-----|
|-0-2p0-1p0-3-2-0-1-2-|-0~~-|
|-0-2p0-1p0-3-2-0-1-2-|-0~~-|
|-0-2p0-1p0-3-2-0-1-2-|-0~~-|
  Play x 8            |







9 – Clean

Drop D Tuning - D, A, D, G, B, E 

Intro 

|---------------| 
|---------------| 
|---------------| 
|-0-3-0-1h3p1-0-| 
|-0-3-0-1h3p1-0-| 
|-0-3-0-1h3p1-0-| 

Verse 

|-----------------------------------------------| 
|-----------------------------------------------| 
|-----------------------------------------------| 
|-1h3-3-3-3---1---3---1h3-3-3-3---3---1-1-1-3-0-| 
|-1h3-3-3-3---1---3---1h3-3-3-3---3---1-1-1-3-0-| 
|-1h3-3-3-3---1---3---1h3-3-3-3---3---1-1-1-3-0-| 
  Play x 6 

Chorus 

|--------------------------------|---------------| 
|--------------------------------|---------------| 
|--------------------------------|---------------| 
|-1---1---3---3---1---1---3---3/-|-0-3-0-1h3p1-0-| 
|-1---1---3---3---1---1---3---3/-|-0-3-0-1h3p1-0-| 
|-1---1---3---3---1---1---3---3/-|-0-3-0-1h3p1-0-| 
  Play x 2                       | 

|-----------------------------------------------| 
|-----------------------------------------------| 
|-----------------------------------------------| 
|-1h3-3-3-3---1---3---1h3-3-3-3---3---1-1-1-3-0-| 
|-1h3-3-3-3---1---3---1h3-3-3-3---3---1-1-1-3-0-| 
|-1h3-3-3-3---1---3---1h3-3-3-3---3---1-1-1-3-0-| 
  Play x 6 

|--------------------------------| 
|--------------------------------| 
|--------------------------------| 
|-1---1---3---3---1---1---3---3/-| 
|-1---1---3---3---1---1---3---3/-| 
|-1---1---3---3---1---1---3---3/-| 
  Play x 2 

Middle 8 
                                             1,2|              3| 
|-------------------------|---------------------|---------------| 
|-------------------------|---------------------|---------------| 
|-------------------------|---------------------|---------------| 
|-4-4-4-4-4-4-0-0-0-0-3-3-|-3-3-3-3-6-6-6-6-6-6-|-0-3-0-1h3p1-0-| 
|-4-4-4-4-4-4-0-0-0-0-3-3-|-3-3-3-3-6-6-6-6-6-6-|-0-3-0-1h3p1-0-| 
|-4-4-4-4-4-4-0-0-0-0-3-3-|-3-3-3-3-6-6-6-6-6-6-|-0-3-0-1h3p1-0-| 

Outro 

|--------------------------------|-----| 
|--------------------------------|-----| 
|--------------------------------|-0~~-| 
|-1---1---3---3---1---1---3---3/-|-4~~-| 
|-1---1---3---3---1---1---3---3/-|-4~~-| 
|-1---1---3---3---1---1---3---3/-|-4~~-| 
  Play x 4                       |






10 – Vaccination

Drop D Tuning – D, A, D, G, B, E

Intro/Verse
        |                          1,2,3,4,5,6,7|             4|       8|
|-------|--------------------------|------------|--------------|--------|
|-------|--------------------------|------------|--------------|--------|
|-------|--------------------------|------------|--------------|--------|
|-0-0-9-|-0-0-9-0-0-0-9-0--0-0-9-0-|-9-10-0-0-9-|-9-12-0-0-9-0-|-10-0-0-|
|-0-0-9-|-0-0-9-0-0-0-9-0--0-0-9-0-|-9-10-0-0-9-|-9-12-0-0-9-0-|-10-0-0-|
|-0-0-9-|-0-0-9-0-0-0-9-0--0-0-9-0-|-9-10-0-0-9-|-9-12-0-0-9-0-|-10-0-0-|

Chorus

|-----------------------------|
|-----------------------------|
|-----------------------------|
|-0--3\-0-4-4-4-0--3\-0-3-4-4-|
|-0--3\-0-4-4-4-0--3\-0-3-4-4-|
|-0--3\-0-4-4-4-0--3\-0-3-4-4-|
  Play x 4

|-------|-------------------------------------|
|-------|-------------------------------------|
|-------|-------------------------------------|
|-0-0-9-|-0-0-9-0-0-0-9-0--0-0-9-0-9-10-0-0-9-|
|-0-0-9-|-0-0-9-0-0-0-9-0--0-0-9-0-9-10-0-0-9-|
|-0-0-9-|-0-0-9-0-0-0-9-0--0-0-9-0-9-10-0-0-9-|
        | Play x 5

|-----------------------------|
|-----------------------------|
|-----------------------------|
|-0--3\-0-4-4-4-0--3\-0-3-4-4-|
|-0--3\-0-4-4-4-0--3\-0-3-4-4-|
|-0--3\-0-4-4-4-0--3\-0-3-4-4-|
  Play x 4

Middle 8

|--------------------------------|
|--------------------------------|
|--------------------------------|
|-6-6-1-1-4-4-6-3--3-1-1-3-3-4-0-|
|-6-6-1-1-4-4-6-3--3-1-1-3-3-4-0-|
|-6-6-1-1-4-4-6-3--3-1-1-3-3-4-0-|
  Play x 4

|-------|-------------------------------------|
|-------|-------------------------------------|
|-------|-------------------------------------|
|-0-0-9-|-0-0-9-0-0-0-9-0--0-0-9-0-9-10-0-0-9-|
|-0-0-9-|-0-0-9-0-0-0-9-0--0-0-9-0-9-10-0-0-9-|
|-0-0-9-|-0-0-9-0-0-0-9-0--0-0-9-0-9-10-0-0-9-|
        | Play x 6

Outro

|-----------------------------|----------|
|-----------------------------|--MENTAL--|
|-----------------------------|----------|
|-0--3\-0-4-4-4-0--3\-0-3-4-4-|----------|
|-0--3\-0-4-4-4-0--3\-0-3-4-4-|-FREAKOUT-|
|-0--3\-0-4-4-4-0--3\-0-3-4-4-|----------|
  Play x 14                   |









11 – Thick

Dropped D tuning – D, A, D, G, B, E

Intro

|-----------------0~~-|---------------0~~-|---------------4-4-4-4-4-4-4-|
|-----------------0~~-|---------------0~~-|---------------4-4-4-4-4-4-4-|
|-----------------3~~-|---------------3~~-|---------------4-4-4-4-4-4-4-|
|-9-0-0-8-9-0-0~~-----|-9-0--0--0-0~~-----|-9-0-0-8-9-0-2-2-2-2-2-2-2-2-|
|-9-0-0-8-9-0-0~~-----|-9-0--0--0-0~~-----|-9-0-0-8-9-0-2-2-2-2-2-2-2-2-|
|-9-0-0-8-9-0-0~~-----|-9-0--0--0-0~~-----|-9-0-0-8-9-0-2-2-2-2-2-2-2-2-|
                          PM……………
Verse

|-------------------------------------------|
|-------------------------------------------|
|-------------------------------------------|
|-0-2-2-3---3---3---3-0-2-2-3---3---3-0-3-5-|
|-0-2-2-3---3---3---3-0-2-2-3---3---3-0-3-5-|
|-0-2-2-3---3---3---3-0-2-2-3---3---3-0-3-5-|
  Play x 6

Chorus

|-------6---------4--5-|-------6---5--5--5--5--5-|
|-------6---------4--5-|-------6---5--5--5--5--5-|
|-------6---------4--5-|-------6---5--5--5--5--5-|
|-0--0--4---0--0--2--3-|-0--0--4---3--3--3--3--3-|
|-0--0--4---0--0--2--3-|-0--0--4---3--3--3--3--3-|
|-0--0--4---0--0--2--3-|-0--0--4---3--3--3--3--3-|
  Play x 2

|-------------------------------------------|
|-------------------------------------------|
|-------------------------------------------|
|-0-2-2-3---3---3---3-0-2-2-3---3---3-0-3-5-|
|-0-2-2-3---3---3---3-0-2-2-3---3---3-0-3-5-|
|-0-2-2-3---3---3---3-0-2-2-3---3---3-0-3-5-|
  Play x 6

|-------6---------4--5-|-------6---5--5--5--5--5-|
|-------6---------4--5-|-------6---5--5--5--5--5-|
|-------6---------4--5-|-------6---5--5--5--5--5-|
|-0--0--4---0--0--2--3-|-0--0--4---3--3--3--3--3-|
|-0--0--4---0--0--2--3-|-0--0--4---3--3--3--3--3-|
|-0--0--4---0--0--2--3-|-0--0--4---3--3--3--3--3-|
  Play x 2

Solo

|---------------------------------------------------|
|---------------------------------------------------|
|---------------------------------------------------|
|-2-3-0-2---2---2-3-0-2---2---2-3-0-2---2---2-3-0-2-|
|-2-3-0-2---2---2-3-0-2---2---2-3-0-2---2---2-3-0-2-|
|-2-3-0-2---2---2-3-0-2---2---2-3-0-2---2---2-3-0-2-|
  Play x 6

|-------6---------4--5-|-------6---5--5--5--5--5-|
|-------6---------4--5-|-------6---5--5--5--5--5-|
|-------6---------4--5-|-------6---5--5--5--5--5-|
|-0--0--4---0--0--2--3-|-0--0--4---3--3--3--3--3-|
|-0--0--4---0--0--2--3-|-0--0--4---3--3--3--3--3-|
|-0--0--4---0--0--2--3-|-0--0--4---3--3--3--3--3-|
  Play x 2

Outro

|-5--5--5--5--5--5--5--5--5-|-------------|
|-5--5--5--5--5--5--5--5--5-|-------------|
|-5--5--5--5--5--5--5--5--5-|-------------|
|-3--3--3--3--3--3--3--3--3-|-9-0-0-8-9-0-|
|-3--3--3--3--3--3--3--3--3-|-9-0-0-8-9-0-|
|-3--3--3--3--3--3--3--3--3-|-9-0-0-8-9-0-|
  Play x 2                  |







12 – Beautiful Love

Standard Tuning - E, A, D, G, B, E 

|--------------|-----------------------| 
|---10~~-8---6-|-3h5-3-5-6-------6-6-6-| 
|---7~~~-----6-|---------------5-----5-| 
|---8~~~-----5-|-------------5-------4-| 
|-7----------x-|-----------5---------5-| 
|------------5-|-----------------------| 

|---------------------------------------------------7-9h12-12~~-12p10----| 
|-6-6h8-10h13-11~~-10~~-8----8-10--------10-10-10----------10~~-------10-| 
|-------------10~~-9~~~---10-----------9-------7-----------10~~----------| 
|-------------x----8~~~-------------10---------8-----------10~~----------| 
|-------------10---x--------------8------------7-------------------------| 
|------------------8~~~--------------------------------------------------| 

|-8~~~----------------------------5-|-5-5--------------------------------| 
|-11~~-11-----5-5~~-5-5~~-5-6h8-6-6-|-----3p2-2-3h5-5~~-5~~-----5-6-8h10-| 
|-10~~------7---7~~---6~~---------6-|---------4-----x---x-----7----------| 
|---------------6~~---5~~---------5-|---------3-----7~~-6~~--------------| 
|-10------------x---------------5---|---------------7~~-6~~--------------| 
|---------------6~~---5-------------|---------3--------------------------| 

|----------------5~~-| 
|-10~~-8-13~~-11-6~~-| 
|-7~~~---10~~----5~~-| 
|-8~~~---11~~----5~~-| 
|-7~~~---10~~----5~~-| 
|--------------------| 

|---------------------------------------------------7-9h12-12~~-12p10----| 
|-6-6h8-10h13-11~~-10~~-8----8-10--------10-10-10----------10~~-------10-| 
|-------------10~~-9~~~---10-----------9-------7-----------10~~----------| 
|-------------x----8~~~-------------10---------8-----------10~~----------| 
|-------------10---x--------------8------------7-------------------------| 
|------------------8~~~--------------------------------------------------| 

|-8~~~----------------------------5-|-------------------------------------| 
|-11~~-11-----5-5~~-5-5~~-5-6h8-6-6-|---3-------6---6-------------------8-| 
|-10~~------7---7~~---6~~---------6-|---2-7-----6---5---12p10p9-------9---| 
|---------------6~~---5~~---------5-|---1-8-----5---x-----------12-11-----| 
|-10------------x---------------5---|-0-2-7-----x-0-5---------------------| 
|---------------6~~---5-------------|-----------0---5---------------------| 

|-----------------|-------------------| 
|-11p10-8---------|-------------------| 
|---------10----9-|-LOADS-OF-FEEDBACK-| 
|------------11---|-------------------| 
|-----------------|-------------------| 
|-----------------|-------------------|






13 – Speechless

Drop C# Tuning – C#, G#, C#, F#, A#, D#

Intro

|-------------------------------------|
|-------------------------------------|
|-------------------------------------|
|-0~~---6-5-4~~---3-3-3-3-3-3-3-3-3-3-|
|-0~~---6-5-4~~---3-3-3-3-3-3-3-3-3-3-|
|-0~~---6-5-4~~---3-3-3-3-3-3-3-3-3-3-|

Verse
                                    1,2,4|                              
|------------------------------|---------|-------7-7-7-7-7-7-7-7-6-6-6-6-|
|------------------------------|---------|-------7-7-7-7-7-7-7-7-6-6-6-6-|
|---------3-2h3----------------|-3-2h3---|-------6-6-6-6-6-6-6-6-5-5-5-5-|
|-1---1---------1---1-x-x--x-x-|-------1-|-1-0h1-4-4-4-4-4-4-4-4-3-3-3-3-|
|-1---1---------1---1-x-x--x-x-|-------1-|-1-0h1-4-4-4-4-4-4-4-4-3-3-3-3-|
|-1---1---------1---1-x-x--x-x-|-------1-|-1-0h1-4-4-4-4-4-4-4-4-3-3-3-3-|

         3|                                 5|
|-6-6-6-6-|-------7-7-7-7-7-7-7-7------/9--9-|
|-6-6-6-6-|-------7-7-7-7-7-7-7-7------/9--9-|
|-5-5-5-5-|-------6-6-6-6-6-6-6-6------/8--8-|
|-3-3-3-3-|-1-0h1-4-4-4-4-4-4-4-4-0--0-/6--6-|
|-3-3-3-3-|-1-0h1-4-4-4-4-4-4-4-4-0--0-/6--6-|
|-3-3-3-3-|-1-0h1-4-4-4-4-4-4-4-4-0--0-/6--6-|

Chorus

|-4--4-4-4-/11-111111/7--7-7-7-/9--9-9-9-|
|-4--4-4-4-/11-111111/7--7-7-7-/9--9-9-9-|
|-3--3-3-3-/10-101010/6--6-6-6-/8--8-8-8-|
|-1--1-1-1-/8--8-8-8-/4--4-4-4-/6--6-6-6-|
|-1--1-1-1-/8--8-8-8-/4--4-4-4-/6--6-6-6-|
|-1--1-1-1-/8--8-8-8-/4--4-4-4-/6--6-6-6-|
  Play x 4

Middle 8
                                               1|                  2|
|-11-11111112-121212|-14--14-14-14-16--16-16-16-|-7--7-7-7-9--9-9-9-|
|-11-11111112-121212|-14--14-14-14-16--16-16-16-|-7--7-7-7-9--9-9-9-|
|-10-10101011-111111|-13--13-13-13-15--15-15-15-|-6--6-6-6-8--8-8-8-|
|-8--8-8-8-9--9-9-9-|-11--11-11-11-13--13-13-13-|-4--4-4-4-6--6-6-6-|
|-8--8-8-8-9--9-9-9-|-11--11-11-11-13--13-13-13-|-4--4-4-4-6--6-6-6-|
|-8--8-8-8-9--9-9-9-|-11--11-11-11-13--13-13-13-|-4--4-4-4-6--6-6-6-|

                   3|
|-14-14-14-14-14-14-|
|-14-14-14-14-14-14-|
|-13-13-13-13-13-13-|
|-11-11-11-11-11-11-|
|-11-11-11-11-11-11-|
|-11-11-11-11-11-11-|

Solo

|------------------|
|------------------|
|------------------|
|-0-1-3--0-1-x-3-4-|
|-0-1-3--0-1-x-3-4-|
|-0-1-3--0-1-x-3-4-|
  Play x 12

Outro

|-4--4-4-4-/11-111111/7--7-7-7-/9--9-9-9-|-----|
|-4--4-4-4-/11-111111/7--7-7-7-/9--9-9-9-|-----|
|-3--3-3-3-/10-101010/6--6-6-6-/8--8-8-8-|-----|
|-1--1-1-1-/8--8-8-8-/4--4-4-4-/6--6-6-6-|-4~~-|
|-1--1-1-1-/8--8-8-8-/4--4-4-4-/6--6-6-6-|-4~~-|
|-1--1-1-1-/8--8-8-8-/4--4-4-4-/6--6-6-6-|-4~~-|
  Play x 8                               |





14 – Pariah

Drop D Tuning – D, A, D, G, B, E

Intro
                                |                  1,3,5,7,9|   2,4,6,8,10|
|-------------------------------|-------------|-------------|-------------|
|-------------------------------|-------------|-------------|-------------|
|-------------------------------|-------------|-------------|-------------|
|-0-4-6-0-3-5-0-2-3-0-2-3-3---1-|-0-2-2-2-0-2-|-0-2-2-0-/10-|-0-2-2-0-5-6-|
|-0-4-6-0-3-5-0-2-3-0-2-3-3---1-|-0-2-2-2-0-2-|-0-2-2-0-/10-|-0-2-2-0-5-6-|
|-0-4-6-0-3-5-0-2-3-0-2-3-3---1-|-0-2-2-2-0-2-|-0-2-2-0-/10-|-0-2-2-0-5-6-|

Chorus
                           1,3,5|     2|    4|
|----------------------|--------|------|-----|
|----------------------|--------|------|-----|
|----------------------|--------|------|-----|
|-0-2-2-2-0-2--0-2-2-0-|-/10-10-|-10-6-|-7-6-|
|-0-2-2-2-0-2--0-2-2-0-|-/10-10-|-10-6-|-7-6-|
|-0-2-2-2-0-2--0-2-2-0-|-/10-10-|-10-6-|-7-6-|

Verse
                                               1,3|           2,4|
|-----------------------------------|-------------|--------------|
|-----------------------------------|-------------|--------------|
|-----------------------------------|-------------|--------------|
|-0-2-2-2-2-0-0-2---0-2-2-2-2-0-0-2-|-3h4-x-1-1-2-|-3h4-x-/7-8-8-|
|-0-2-2-2-2-0-0-2---0-2-2-2-2-0-0-2-|-3h4-x-1-1-2-|-3h4-x-/7-8-8-|
|-0-2-2-2-2-0-0-2---0-2-2-2-2-0-0-2-|-3h4-x-1-1-2-|-3h4-x-/7-8-8-|

                            1,3,|  2,4|
|----------------------|--------|-----|
|----------------------|--------|-----|
|----------------------|--------|-----|
|-0-2-2-2-0-2--0-2-2-0-|-/10-10-|-7-6-|
|-0-2-2-2-0-2--0-2-2-0-|-/10-10-|-7-6-|
|-0-2-2-2-0-2--0-2-2-0-|-/10-10-|-7-6-|

Middle 8

|-------------------------|------------------------------|
|-------------------------|------------------------------|
|-------------------------|------------------------------|
|-7-6-5-5-5-5-5-6-6-6-6-6-|-0-2-2-2-0-2--0-2-0-2-0-2-0-0-|
|-7-6-5-5-5-5-5-6-6-6-6-6-|-0-2-2-2-0-2--0-2-0-2-0-2-0-0-|
|-7-6-5-5-5-5-5-6-6-6-6-6-|-0-2-2-2-0-2--0-2-0-2-0-2-0-0-|
                          | Play x 2

|-------------------------|------------------------------|
|-------------------------|------------------------------|
|-------------------------|------------------------------|
|-7-6-5-5-5-5-5-6-6-6-6-6-|-0-2-2-2-0-2--0-2-0-2-0-2-0-0-|
|-7-6-5-5-5-5-5-6-6-6-6-6-|-0-2-2-2-0-2--0-2-0-2-0-2-0-0-|
|-7-6-5-5-5-5-5-6-6-6-6-6-|-0-2-2-2-0-2--0-2-0-2-0-2-0-0-|
                          | Play x 2

|-------------------------|
|-------------------------|
|-------------------------|
|-7-6-5-5-5-5-5-6-6-6-6-6-|
|-7-6-5-5-5-5-5-6-6-6-6-6-|
|-7-6-5-5-5-5-5-6-6-6-6-6-|

Outro
                           1,3,5|  2,4|
|----------------------|--------|-----|
|----------------------|--------|-----|
|----------------------|--------|-----|
|-0-2-2-2-0-2--0-2-2-0-|-/10-10-|-7-6-|
|-0-2-2-2-0-2--0-2-2-0-|-/10-10-|-7-6-|
|-0-2-2-2-0-2--0-2-2-0-|-/10-10-|-7-6-|






15 – The Silver Hawaiian

Drop D Tuning – D, A, D, G, B, E

Intro

|------------|
|------------|
|------------|
|------------|
|-7-0-5-6--6-|
|-7-0-5-6--6-|
  Play x 8

Verse
                                               1,3|              2,4|
|------------------------------------|------------|-----------------|
|------------------------------------|------------|-----------------|
|------------------------------------|------------|-----------------|
|------------------------------------|------------|-----------------|
|-4-2-4--4-2-4--4-2-4--2-4--2-4--2-4-|-4--0--2--4-|-4-0-0-5-0-0-6-0-|
|-4-2-4--4-2-4--4-2-4--2-4--2-4--2-4-|-4--0--2--4-|-4-0-0-5-0-0-6-0-|

Chorus

|------------------------------------|
|------------------------------------|
|------------------------------------|
|------------------------------------|
|-2-3-4-0-2-3-4-7--2--3-4-7-2-3-4-10-|
|-2-3-4-0-2-3-4-7--2--3-4-7-2-3-4-10-|
  Play x 2

                                               1,3|              2,4|
|------------------------------------|------------|-----------------|
|------------------------------------|------------|-----------------|
|------------------------------------|------------|-----------------|
|------------------------------------|------------|-----------------|
|-4-2-4--4-2-4--4-2-4--2-4--2-4--2-4-|-4--0--2--4-|-4-0-0-5-0-0-6-0-|
|-4-2-4--4-2-4--4-2-4--2-4--2-4--2-4-|-4--0--2--4-|-4-0-0-5-0-0-6-0-|

|------------|
|------------|
|------------|
|------------|
|-7-0-5-6--6-|
|-7-0-5-6--6-|
  Play x 8

Outro

|------------------------------------------------|
|------------------------------------------------|
|------------------------------------------------|
|------------------------------------------------|
|-3-2--0-2--0-2--3-2-----3-2--0-2--0-2--3-2------|
|-3-2--0-2--0-2--3-2-----3-2--0-2--0-2--3-2------|
  Play x 5







16 – Overrated

Drop C# Tuning - C#, G#, C#, F#, A#, D# 
 
Intro 

|---------------------------------| 
|-----------------5-5---5-5---5-5-| 
|-----------------4-4---4-4---4-4-| 
|-0-------2-------2-2---2-2---2-2-| 
|-0-------2-----------------------| 
|-0-------2-----------------------| 
  Play x 4 

Pre-Chorus 

|-----------------------------------------|-----------------------------| 
|-----------------------------------------|-----------------------------| 
|-----------------------------------------|-----------------------------| 
|-5-5-5-5-5-5-5-5-5-5-5-5-7-7-7-7-0-0-0-0-|-0-1-2-2-2-2-2-2-2-2-2-2-2-2-| 
|-5-5-5-5-5-5-5-5-5-5-5-5-7-7-7-7-0-0-0-0-|-0-1-2-2-2-2-2-2-2-2-2-2-2-2-| 
|-5-5-5-5-5-5-5-5-5-5-5-5-7-7-7-7-0-0-0-0-|-0-1-2-2-2-2-2-2-2-2-2-2-2-2-| 

|-----------------------------------------------------------------------| 
|-----------------------------------------------------------------------| 
|-----------------------------------------------------------------------| 
|-10-10-10-10-10-10-10-10-10-10-10-10-10-10-10-10-0-0-0-0-0-0-0-0-1-0-0-| 
|-10-10-10-10-10-10-10-10-10-10-10-10-10-10-10-10-0-0-0-0-0-0-0-0-1-0-0-| 
|-10-10-10-10-10-10-10-10-10-10-10-10-10-10-10-10-0-0-0-0-0-0-0-0-1-0-0-| 
                                                                    PM. 

|---------------------------| 
|---------------------------| 
|---------------------------| 
|-1-0-0-1-0-0-1-1-1-1-1-1-1-| 
|-1-0-0-1-0-0-1-1-1-1-1-1-1-| 
|-1-0-0-1-0-0-1-1-1-1-1-1-1-| 
    PM.   PM. 

Chorus 
                           1,2,3,4| 
|-------------------------|-------| 
|-------------------------|-------| 
|-------------------------|-------| 
|-0-2-2-0-2-0-2/5---5~~-3-|-5-3-5-| 
|-0-2-2-0-2-0-2/5---5~~-3-|-5-3-5-| 
|-0-2-2-0-2-0-2/5---5~~-3-|-5-3-5-| 
  Play x 5 

Solo 

|---------------------------------| 
|-----------------5-5---5-5---5-5-| 
|-----------------4-4---4-4---4-4-| 
|-0-------2-------2-2---2-2---2-2-| 
|-0-------2-----------------------| 
|-0-------2-----------------------| 
  Play x 3 

|-----------------------------------------|-----|-------------------------| 
|-----------------------------------------|-----|-------------------------| 
|-----------------------------------------|-----|-------------------------| 
|-5-5-5-5-5-5-5-5-5-5-5-5-7-7-7-7-0-0-0-0-|-0-1-|-2-2-2-2-2-2-2-2-2-2-2-2-| 
|-5-5-5-5-5-5-5-5-5-5-5-5-7-7-7-7-0-0-0-0-|-0-1-|-2-2-2-2-2-2-2-2-2-2-2-2-| 
|-5-5-5-5-5-5-5-5-5-5-5-5-7-7-7-7-0-0-0-0-|-0-1-|-2-2-2-2-2-2-2-2-2-2-2-2-| 
                                          | Play x 3 
                 1,2| 
|-------------------| 
|-------------------| 
|-------------------| 
|-10-10-10-10-10-10-| 
|-10-10-10-10-10-10-| 
|-10-10-10-10-10-10-|






17 – Sam Hell

6 - String Banjo Tuning – D, A, D, G, B, E

Intro

|---------------------|---------------------|
|---------------------|-------------8-------|
|---7---10^---7---5h7-|---7---10^-------5h7-|
|-0---0-----0---0-----|-0---0-----0---0-----|
|---------------------|---------------------|
|---------------------|---------------------|
  Play x 3            |

Verse
                                     1,2,3,5|                  4,6|
|---------------------|---------------------|---------------------|
|---------------------|---------------------|-------------8-------|
|---7---10^---7---5h7-|---7---10^---7---5h7-|---7---10^-------5h7-|
|-0---0-----0---0-----|-0---0-----0---0-----|-0---0-----0---0-----|
|---------------------|---------------------|---------------------|
|---------------------|---------------------|---------------------|

                         7|
|-------------------------|
|-------------------------|
|---7---10^---10^---10^---|
|-0---0-----0-----0-----0-|
|-------------------------|
|-------------------------|

Chorus

|--------------|--------------|--------------|-----------------------|
|--------------|--------------|--------------|-----------------------|
|--------------|--------------|--------------|-----------------------|
|-/9-0-3^-0--x-|-/8-0-3^-0--x-|-/9-0-3^-0--x-|-/5-5-5-5-5-5-5-5-3^-0-|
|-/9-0-3^-0--x-|-/8-0-3^-0--x-|-/9-0-3^-0--x-|-/5-5-5-5-5-5-5-5-3^-0-|
|-/9-0-3^-0--x-|-/8-0-3^-0--x-|-/9-0-3^-0--x-|-/5-5-5-5-5-5-5-5-3^-0-|
  Play x 8     |              | Play x 7     | Play x 4

Middle 8
                                                      1,2|
|--------------------|-----------------------------------|
|--------------------|-----------------------------------|
|--------------------|-----------------------------------|
|-0--0-3^-0-3--4-5-0-|-/9-0-3^-0--0-3-0-3-4-5-0--/8-0-3^-|
|-0--0-3^-0-3--4-5-0-|-/9-0-3^-0--0-3-0-3-4-5-0--/8-0-3^-|
|-0--0-3^-0-3--4-5-0-|-/9-0-3^-0--0-3-0-3-4-5-0--/8-0-3^-|

|--------------------|
|--------------------|
|--------------------|
|-0--0-3^-0-3--4-5-0-|
|-0--0-3^-0-3--4-5-0-|
|-0--0-3^-0-3--4-5-0-|

Outro

                                     1,2,3,5|                    4|
|---------------------|---------------------|---------------------|
|---------------------|---------------------|-------------8-------|
|---7---10^---7---5h7-|---7---10^---7---5h7-|---7---10^-------5h7-|
|-0---0-----0---0-----|-0---0-----0---0-----|-0---0-----0---0-----|
|---------------------|---------------------|---------------------|
|---------------------|---------------------|---------------------|

                                               6|
|-----------------------------------------------|
|-----------------------------------------------|
|-----7-------10^-------10^-------10^-------7~~-|
|-0-------0---------0---------0---------0---0~~-|
|-----------------------------------------------|
|-----------------------------------------------|

And That's It.
Comments