Helmet - Bad Mood Chords & Tabs

 

Bad Mood Chords & Tabs

Helmet Chords & Tabs

Version: 2 Type: Bass Tab 0 ratings
1 star 2 stars 3 stars 4 stars 5 stars
comments

Bad Mood Bass Tab

   
Helmet - Bad Mood off of "Strap it On"

Standard Helmet Tuning: Drop D


Main 

G-----------------||
D-----------------||  "Played at least 20 times during solo"
A-----------------||
D--2-2-2-0-2-2-3--||


Chorus

G-------------------------------------------------------------------||
D-------------------------------------------------------------------||
A-------------------------------------------------------------------||  
D--5-5-5-5-5-5-5-5-5-5-5-5-5-5-5-5-7-7-7-7-7-7-7-7-7-7-7-7-7-7-7-7--||

--------------------------------------------------------------------||
--------------------------------------------------------------------||
--------------------------------------------------------------------||  
---5-5-5-5-5-5-5-5-5-5-5-5-5-5-5-5-7-7-7-7-7-7-7-7-7-7-7-7-7-7-7-7--||

*If you want you can play this as the CHORUS just to spice it up a
little*
[ Tab from: http://www.guitartabs.cc/tabs/h/helmet/bad_mood_btab_ver_2.html ]
G-------------------------------------------------------------------
D-------------------------------------------------------------------
A-------------------------------------------------------------------
D--5-5-5-5-5-5-5-5-5-5-5-5-5-5-5-5-7-7-7-7-7-7-7-7-7-7-7-7-7-7-7/2--

--------------------------------------------------------------------||
--------------------------------------------------------------------||
"Slide up to 2nd and down
--------------------------------------------------------------------||  
to 7th(5th) fret fast" 
---5-5-5-5-5-5-5-5-5-5-5-5-5-5-5/2-7-7-7-7-7-7-7-7-7-7-7-7-7-7-7-7--||


Thats its, really easy to play but still rips all to hell  -  ODIUM 98"


O yeah i figured out the first part to Sinatra (song right after BAD
MOOD)

Drop D

G----------------------||
D----------------------||          There ya go, have fun!
A----------------------||
D--2-2-0--0-2-1(hold)--||   



If anyone has anyother Helmet tabs please post them - i would like to
see some songs off of "Aftertaste" If anyone could.

Peace.
Comments