Helloween - Where The Rain Grows Chords & Tabs

 

Where The Rain Grows Chords & Tabs

Helloween Chords & Tabs

Version: 1 Type: Tab 0 ratings
1 star 2 stars 3 stars 4 stars 5 stars
comments

Where The Rain Grows Tab

   
HELLOWEEN 
WHERE THE RAIN GROWNS  
from album "Master of the Ring"

Transcibed by ANDREA GIOMI (e-mail Giomi@cdq.it)
                  
                                         4 Times
   Em                       C     DM  
e|------------------------|-----------------------|
B|------------------------|-----------------------|
G|-9------9---------------|-5-----7---------------|
D|-9------9---------------|-5-----7---------------|
A|-7------7---7-7-9-9-8-8-|-3-----5---5-5-9-9-5-5-|
E|-0------0---------------|-0-----0---------------|


  Em             DM
e|-------------|----------------|
B|-------------|----------------|
G|-9------9----|-7--------------|
D|-9------9----|-7--------------|
A|-7------7----|-5--------------|
E|-0------0----|-0--------------|


   Guitar 1 

e|-8-0-7-0--------------------------|-10-0-8-0---------8-0-7-0----------|
B|---------5-0-7-0-10-0-8-0-7-0-8-0-|----------7-0-8-0---------8-0-10-0-|
G|----------------------------------|-----------------------------------|
D|----------------------------------|-----------------------------------|
A|----------------------------------|-----------------------------------|
E|----------------------------------|-----------------------------------|
 |                                  |                                   |
 |  Guitar 2                        |                                   |
 |                                  |                                   |
e|----------------------------------|-----------------------------------|
B|----------------------------------|-----------------------------------|
G|-9--------------------------------|-5----------------7----------------|
D|-9--------------------------------|-5----------------7----------------|
A|-7--------------------------------|-3----------------5----------------|
E|-0--------------------------------|-0----------------0----------------|



  Lyric enter

                                                4 Times
   Em                         C     DM  
e|--------------------------|--------------------------|
B|--------------------------|--------------------------|
G|-9---------9--------------|-5---------7--------------|
D|-9---------9--------------|-5---------7--------------|
A|-7-7-7-7-7-7--7-7-9-9-8-8-|-3-3-3-3-3-5--5-5-9-9-5-5-|
E|-0---------0-------- -----|-0---------0--------------|

 

  Pre-Chorus     
                                                             2 Times                  
e|-----------|-------------------|--------------|-----------------------|
B|-----------|-------------------|--------------|-----------------------|
G|--4--------|--9----------------|--5-----------|---7----5----4----2----|
D|--4--------|--9----------------|--5-----------|---7----5----4----2----|
A|--2--------|--7777777777777777-|--3-----------|---5----3----2----0----|
E|--0--------|--0----------------|--0-----------|---0----0----0----0----|


  


  CHORUS

    G               DM            Em             CM
e|------------|-------------|--------------|-------------|
B|------------|-------------|--------------|-------------|
G|------------|------7------|------9-------|------5------|
D|----5-------|------7------|------9-------|------5------|
A|----5-------|------5------|------7-------|------3------|
E|----3-------|------0------|------0-------|------0------|


    G               DM            Em           CM    DM
e|------------|-------------|--------------|-------------|
B|------------|-------------|--------------|-------------|
G|------------|------7------|------9-------|----5----7---|
D|----5-------|------7------|------9-------|----5----7---|
A|----5-------|------5------|------7-------|----3----5---|
E|----3-------|------0------|------0-------|----0----0---|



 
 Guitar 1 

e|-8-0-7-0--------------------------|-10-0-8-0---------8-0-7-0----------|
B|---------5-0-7-0-10-0-8-0-7-0-8-0-|----------7-0-8-0---------8-0-10-0-|
G|----------------------------------|-----------------------------------|
D|----------------------------------|-----------------------------------|
A|----------------------------------|-----------------------------------|
E|----------------------------------|-----------------------------------|
 |                                  |                                   |
 |  Guitar 2                        |                                   |
 |                                  |                                   |
e|----------------------------------|-----------------------------------|
B|----------------------------------|-----------------------------------|
G|-9--------------------------------|-5----------------7----------------|
D|-9--------------------------------|-5----------------7----------------|
A|-7--------------------------------|-3----------------5----------------|
E|-0--------------------------------|-0----------------0----------------|



  Lyric enter

                                                4 Times
   Em                         C     DM  
e|--------------------------|--------------------------|
B|--------------------------|--------------------------|
G|-9---------9--------------|-5---------7--------------|
D|-9---------9--------------|-5---------7--------------|
A|-7-7-7-7-7-7--7-7-9-9-8-8-|-3-3-3-3-3-5--5-5-9-9-5-5-|
E|-0---------0-------- -----|-0---------0--------------|

 

  Pre-Chorus     
                                                             2 Times                  
e|-----------|-------------------|--------------|-----------------------|
B|-----------|-------------------|--------------|-----------------------|
G|--4--------|--9----------------|--5-----------|---7----5----4----2----|
D|--4--------|--9----------------|--5-----------|---7----5----4----2----|
A|--2--------|--7777777777777777-|--3-----------|---5----3----2----0----|
E|--0--------|--0----------------|--0-----------|---0----0----0----0----|


  


  CHORUS

    G               DM            Em             CM
e|------------|-------------|--------------|-------------|
B|------------|-------------|--------------|-------------|
G|------------|------7------|------9-------|------5------|
D|----5-------|------7------|------9-------|------5------|
A|----5-------|------5------|------7-------|------3------|
E|----3-------|------0------|------0-------|------0------|

[ Tab from: http://www.guitartabs.cc/tabs/h/helloween/where_the_rain_grows_tab.html ]
    G               DM            Em           CM    DM
e|------------|-------------|--------------|-------------|
B|------------|-------------|--------------|-------------|
G|------------|------7------|------9-------|----5----7---|
D|----5-------|------7------|------9-------|----5----7---|
A|----5-------|------5------|------7-------|----3----5---|
E|----3-------|------0------|------0-------|----0----0---|



         
 BRIDGE 1 AFTER SOLO
                                           

      2 Times              2 Times              2 Times
e|-------------------|--------------------|--------------------|--------------------------------------|
B|-------------------|--------------------|--------------------|--------------------------------------|
G|-------------------|--------------------|-----------7--------|-------------------7------------------|
D|----------9-7------|-----------7--------|----7-9------10-9-7-|----------9-7--------10-9-7-10-9-7----|
A|-7-9-10-7-----10-9-|----7-9------10-9-7-|-10-----10----------|-7-9-10-7-----10-9-----------------10-|
E|-------------------|-10-----10----------|--------------------|--------------------------------------|
 |                   |                    |                    |                                      |
 |                   |                    |                    |                                      | 
e|-------------------|--------------------|--------------------|--------------------------------------|
B|-------------------|--------------------|--------------------|--------------------------------------|
G|-9-----------------|-7------------------|--------------------|-5-----------------7------------------|
D|-9-----------------|-7------------------|-5------------------|-5-----------------7------------------|
A|-7-----------------|-5------------------|-5------------------|-3-----------------5------------------|
E|-0-----------------|-0------------------|-3------------------|-0-----------------0------------------|




      2 Times              2 Times              2 Times
e|-------------------|--------------------|--------------------|--------------------------------------|
B|-------------------|--------------------|--------------------|--------------------------------------|
G|-------------------|--------------------|-----------7--------|-------------------7------------------|
D|----------9-7------|-----------7--------|----7-9------10-9-7-|----------9-7--------10-9-7-10-9-7----|
A|-7-9-10-7-----10-9-|----7-9------10-9-7-|-10-----10----------|-7-9-10-7-----10-9-----------------10-|
E|-------------------|-10-----10----------|--------------------|--------------------------------------|
 |                   |                    |                    |                                      |
 |                   |                    |                    |                                      | 
e|-------------------|--------------------|--------------------|--------------------------------------|
B|-------------------|--------------------|--------------------|--------------------------------------|
G|-9-----------------|-7------------------|--------------------|-5-----------------7------------------|
D|-9-----------------|-7------------------|-5------------------|-5-----------------7------------------|
A|-7-----------------|-5------------------|-5------------------|-3-----------------5------------------|
E|-0-----------------|-0------------------|-3------------------|-0-----------------0------------------|



   BRIDGE 2 

e|-----------------------------------------|-----------------------------------------|
B|-15-0-0-14-0-0-15-0-12-0-15-0--14-0-12-0-|-15-0-0-14-0-0-15-0-12-0-17-0-15-0-14-0--|
G|-----------------------------------------|-----------------------------------------|
D|-----------------------------------------|-----------------------------------------|
A|-----------------------------------------|-----------------------------------------|
E|-----------------------------------------|-----------------------------------------|

e|-----------------------------------------|-------------------------------------------------|
B|-15-0-0-14-0-0-15-0-12-0-19-0-17-0-15-0--|-15-14-12----------------------------------12-14-|
G|-----------------------------------------|----------14-12-11----------------11-12-14-------|
D|-----------------------------------------|-------------------14-12-11-12-14----------------|
A|-----------------------------------------|-------------------------------------------------|
E|-----------------------------------------|-------------------------------------------------|


  CHORUS 2

e|-------------|-------------|------------|------------|
B|-------------|-------------|------------|------------|
G|-9-----------|-7-----------|------------|-7----------|
D|-9-----------|-7-----------|-5----------|-7----------|
A|-7-----------|-5-----------|-5----------|-5----------|
E|-0-----------|-0-----------|-3----------|-0----------|
   
e|-------------|-------------|------------|------------|
B|-------------|-------------|------------|------------|
G|-9-----------|-7-----------|------------|-7----------|
D|-9-----------|-7-----------|-5----------|-7----------|
A|-7-----------|-5-----------|-5----------|-5----------|
E|-0-----------|-0-----------|-3----------|-0----------|



 CHORUS

    G               DM            Em             CM
e|------------|-------------|--------------|-------------|
B|------------|-------------|--------------|-------------|
G|------------|------7------|------9-------|------5------|
D|----5-------|------7------|------9-------|------5------|
A|----5-------|------5------|------7-------|------3------|
E|----3-------|------0------|------0-------|------0------|


    G               DM            Em           CM    DM
e|------------|-------------|--------------|-------------|
B|------------|-------------|--------------|-------------|
G|------------|------7------|------9-------|----5----7---|
D|----5-------|------7------|------9-------|----5----7---|
A|----5-------|------5------|------7-------|----3----5---|
E|----3-------|------0------|------0-------|----0----0---|


   Guitar 1 

e|-8-0-7-0--------------------------|-10-0-8-0---------8-0-7-0----------|
B|---------5-0-7-0-10-0-8-0-7-0-8-0-|----------7-0-8-0---------8-0-10-0-|
G|----------------------------------|-----------------------------------|
D|----------------------------------|-----------------------------------|
A|----------------------------------|-----------------------------------|
E|----------------------------------|-----------------------------------|
 |                                  |                                   |
 |  Guitar 2                        |                                   |
 |                                  |                                   |
e|----------------------------------|-----------------------------------|
B|----------------------------------|-----------------------------------|
G|-9--------------------------------|-5----------------7----------------|
D|-9--------------------------------|-5----------------7----------------|
A|-7--------------------------------|-3----------------5----------------|
E|-0--------------------------------|-0----------------0----------------|
Comments