Helloween - We Got The Right Chords & Tabs

 

We Got The Right Chords & Tabs

Helloween Chords & Tabs

Version: 1 Type: Bass Tab 0 ratings
1 star 2 stars 3 stars 4 stars 5 stars
comments

We Got The Right Bass Tab

G||------------------|----------------------------|----------------------------|
D||------------------|-----9--10--9-----9--10--9--|-----9--10--9-----9--10-----|
A||------------------|---------------7------------|--7------------7---------7--|
E||------------------|--0-------------------------|----------------------------|


                                                          
----------------------------|----------------------------|
-----9--10--9-----9--10--9--|-----9--10--9-----9--10-----|
---------------7------------|--7------------7---------7--|
--0-------------------------|----------------------------|


                                                          
----------------------------|----------------------------|
-----9--10--9-----9--10--9--|-----9--10--9------------7--|
---------------7------------|--7------------7--7---------|
--0-------------------------|---------------------10-----|


                                                                  
--------------------------------|--------------------------------|
---------10-------------10------|--------------------------------|
-----10------10-----10------10--|-----10/-12--10--10---------12--|
--8--------------8--------------|--8------------------8/-10------|


                                                               
-------------------|------------------------------------------|
-------------------|------------------------------------------|
--7----------------|--2--2-2-2-2-2--2--2--2--2-2-2-2-2--2--2--|
-------------------|------------------------------------------|


                                                                         
---------------------------------|--------------------------------------|
---------------------------------|--------------------------------------|
--2--2-2-2-2-2-----0--2----14/---|--2--2--2--2--2--2--2--2--2--2--2--2--|
----------------2----------------|--------------------------------------|


                                                                          
----------------------------------|--------------------------------------|
----------------------------------|--------------------------------------|
--2--2--2--2--2--2--2--2--2--0----|--2--2--2--2--2--2--2--4--5--4--2--0--|
----------------------------------|--------------------------------------|


                                                                              
--------------------------------------|--------------------------------------|
--------------------------------------|--------------------------------------|
--------------------------------------|--0--0--0--0--0--0--2--2--4--5--4--2--|
--3--3--3--3--3--3--3--3--3--3--3--3--|--------------------------------------|


                                                                              
--------------------------------------|--------------------------------------|
--------------------------------------|--------------------------------------|
--0--0--0--0--0--0--2--2--4--5--4--2--|--------------------------------------|
--------------------------------------|--3--3--3--3--3--3--2--2--2--2--2--2--|


                                                                     
-----------------------------|--------------------------------------|
-----------------------------|--------------------------------------|
-----------------------------|--------------------------------------|
--3--3--3--3--3--3--5--------|--2--2--2--2--2--2--2--2--2--2--2--2--|


                                       
--------------------------------------|
--------------------------------------|
--------------------------7--7--5-----|
--0--0--0--0--0--0--0--0-----------7--|


                                                 
------------------------------------------------|
-------------5-4-2------------------5-4-2-------|
--2--2-2-2-2-------5-4-5-2--2-2-2-2-------5-4-5-|
------------------------------------------------|


                                                                            
------------------------------------|--------------------------------------|
-------------5-4-2------------------|--------------------------------------|
--2--2-2-2-2-------5-4-5-2----14/---|--2--2--2--2--2--2--2--2--2--2--2--2--|
------------------------------------|--------------------------------------|


                                                                          
----------------------------------|--------------------------------------|
----------------------------------|--------------------------------------|
--2--2--2--2--2--2--2--2--2--0----|--2--2--2--2--2--2--2--4--5--4--2--0--|
----------------------------------|--------------------------------------|


                                                                              
--------------------------------------|--------------------------------------|
--------------------------------------|--------------------------------------|
--------------------------------------|--0--0--0--0--2--4--2--2--4--5--4--2--|
--3--3--3--3--3--3--3--3--3--3--3--3--|--------------------------------------|


                                                                              
--------------------------------------|--------------------------------------|
--------------------------------------|--------------------------------------|
--0--0--0--0--2--4--2--2--4--5--4--2--|--------------------------------------|
--------------------------------------|--3--3--3--3--3--3--2--2--2--2--2--2--|


                                                                     
-----------------------------|--------------------------------------|
-----------------------------|--------------------------------------|
-----------------------------|--------------------------------------|
--3--3--3--3--3--3--5--------|--2--2--2--2--2--2--2--2--2--2--2--2--|


                                                                         
--------------------------------------|---------------------------------|
-----------2--------------------------|------------6--4-----------------|
--------------2-----------------------|---------4--------4--------------|
--0--0--0--------0--0--0--0--0--0--0--|--2------------------2--5--0--2--|


                                                                 
-----------4----------------6--4-----|--4----------4--6----7----|
--------7-------7--------7--------7--|----------4---------------|
-----7----------------7--------------|-------2------------------|
--5----------------5-----------------|--------------------------|


                                                                          
--6--------------------|----------12h11-11-----11--11------11--9--9------|
-----6-----------------|--12----------------9------------------------12--|
--------8--------------|------12-----------------------12----------------|
-----------------------|-------------------------------------------------|


                                                                               
-----------------------------------|-----------------9--9---------------------|
-----------------7--9----11--11----|--------9--11----------12--11--12--11--9--|
-----7--------7--------------------|-----9------------------------------------|
--5-----5--9-----------------------|--7---------------------------------------|


                                                                      
------------------------------|--------------------------------------|
--11--9--7--9--7--6-----------|--------------------------------------|
---------------------7--------|--------------------------------------|
------------------------------|--2--2--2--2--2--2--2--2--2--4--2--4--|


                                                                              
--------------------------------------|--------------------------------------|
--------------------------------------|--------------------------------------|
--------------------------------------|--------------------------------------|
--5--5--5--5--5--5--5--5--5--5--5--5--|--7--7--7--7--7--7--7--7--7--7--7--7--|


                                         
----------------------------------------|
----------------------------------------|
--4--4-4-4--4--4-----4--4-4-4--4--2--4--|
------------------4---------------------|


                                         
----------------------------------------|
----------------------------------------|
--5--5--5--5--5-5-5--5--5-5----5--4--2--|
----------------------------5-----------|


                                                                               
---------------------------------------|--------------------------------------|
---------------------------------------|--------------------------------------|
--0-0-0--0--0--0--0--0--0--0--0--2--4--|--2--2--2--2--2--2--2--2--2--2--2--2--|
---------------------------------------|--------------------------------------|


                                                               
--------------------------------------|-----------------------|
--2--2--2--2--2--2--2-----2-----------|-----------------------|
-----------------------2--------------|--0--------------------|
-----------------------------0--0--0--|-----------------0--2--|

[ Tab from: http://www.guitartabs.cc/tabs/h/helloween/we_got_the_right_btab.html ]
                                          
-----------------------------------------|
-----------------------------------------|
---------------------5--5-5-5--5--5--5-5-|
--3--3-3-3--3--2--3----------------------|


                                          
-----------------------------------------|
-----------------------------------------|
---------------0--2--5--5-5-5-5-5--5--5--|
--3--3-3-3--3----------------------------|


                                         
----------------------------------------|
----------------------------------------|
--------------------5--5-5-5-5-5--5--5--|
--3--3--3--3--3--3----------------------|


                                             
-----------------------------------2--2--2--|
--------------------------------------------|
--0--0-0-0-0-0--0-0-0-0-0--0-0-0-0----------|
--------------------------------------------|


                                         
----------------------------------------|
----------------------------------------|
---------------------5--5-5-5--5--5--5--|
--3--3-3-3--3--3--3---------------------|


                                         
----------------------------------------|
----------------------------------------|
---------------------5--5-5-5--5--5--5--|
--3--3-3-3--3--3--3---------------------|


                                         
----------------------------------------|
----------------------------------------|
---------------------5--5-5-5--5--5--5--|
--3--3-3-3--3--3--3---------------------|


                                           
------------------------------------------|
------------------------------------------|
--0--0-0-0--0--0-0-0--0--0-0-0--0--0-0-0--|
------------------------------------------|


                                           
------------------------------------------|
------------------------------------------|
----------------------5--5-5-5-5-5--5--5--|
--3--3-3-3-3-3--3--3----------------------|


                                           
------------------------------------------|
------------------------------------------|
--0--0-0-0-0-0--0--0--0--0-0-0-0-0--0--0--|
------------------------------------------|


                                           
------------------------------------------|
------------------------------------------|
----------------------5--5-5-5-5-5--5--5--|
--3--3-3-3-3-3--3--3----------------------|


                                                                              
--------------------------------------|--------------------------------------|
--------------------------------------|--------------------------------------|
--------------------------------------|--------------------5--5--5--5--5--5--|
--5--5--5--3--3--3--2--2--2--0--0--0--|--3--3--3--3--3--3--------------------|


                                                                              
--------------------------------------|--------------------------------------|
--------------------------------------|--------------------------------------|
--------------------5--5--5--5--4--2--|--------------------5--5--5--5--5--5--|
--5--5--5--5--5--5--------------------|--3--3--3--3--3--3--------------------|


                                           
------------------------------------------|
------------------------------------------|
------------------------------------------|
--5-5-5--5--3-3-3--3--2-2-2--2--0-0-0--0--|


                                                   
--------------------------------------------------|
--------------------------------------------------|
--5-5-5-5-5-5-5-5-5-5-5-5-------------------------|
--------------------------3-3-3-3-3-3-3-3-3-3-3-3-|


                                                   
--------------------------------------------------|
--------------------------------------------------|
--------------------------5-5-5-5-5-5-5-5-5-5-5-5-|
--5-5-5-5-5-5-5-5-5-5-5-5-------------------------|


                                                                              
--------------------------------------------------|--------------------------|
--------------------------------------------------|--------------------------|
--------------------------------------------------|--5-5-5-5-5-5-5-5-5-5-5-5-|
--3-3-3-3-3-3-3-3-3-3-3-3-5-5-5-5-5-5-5-5-5-5-5-5-|--------------------------|


                                                       
------------------------------------------------------|
------------------------------------------------------|
--------------9-9-----------------------9-9-----------|
--7-7-7-7-7-7-----10-10-9-9-7-7-7-7-7-7-----10-10-9-9-|


                                                                               
---------------------------------------|--------------------------------------|
---------------------------------------|--------------------------------------|
--------------9-9----------------14/---|--2--2--2--2--2--2--2--2--2--2--2--2--|
--7-7-7-7-7-7-----10-10-9-9-7----------|--------------------------------------|


                                                                          
----------------------------------|--------------------------------------|
----------------------------------|--------------------------------------|
--2--2--2--2--2--2--2--2--2--0----|--2--2--2--2--2--2--2--4--5--4--2--0--|
----------------------------------|--------------------------------------|


                                                                              
--------------------------------------|--------------------------------------|
--------------------------------------|--------------------------------------|
--------------------------------------|--0--0--0--0--0--0--2--2--4--5--4--2--|
--3--3--3--3--3--3--3--3--3--3--3--3--|--------------------------------------|


                                                                              
--------------------------------------|--------------------------------------|
--------------------------------------|--------------------------------------|
--0--0--0--0--0--0--2--2--4--5--4--2--|--------------------------------------|
--------------------------------------|--3--3--3--3--3--3--2--2--2--2--2--2--|


                                                           
-------------------|--------------------------------------|
-------------------|--------------------------------------|
-------------------|-----------------------------2--2--2--|
--3----------------|--2--2--2--4--4--4--5--5--5-----------|


                                                                              
--------------------------------------|--------------------------------------|
--------------------------------------|--------------------------------------|
--------------------------------------|--------------------------------------|
--2--2--2--2--2--2--2--2--2--4--2--4--|--5--5--5--5--5--5--5--5--5--5--5--5--|


                                                                                
--------------------------------------|----------------------------------------|
--------------------------------------|----------------------------------------|
--2--2--2--2--2--2--2--2--2--2--2--2--|--4--4-4-4--4--4-----4--4-4-4--4--2--4--|
--------------------------------------|------------------4---------------------|


                                         
----------------------------------------|
----------------------------------------|
--5--5--5--5--5-5-5--5--5-5----5--4--2--|
----------------------------5-----------|


                                                                               
---------------------------------------|--------------------------------------|
---------------------------------------|--------------------------------------|
--0-0-0--0--0--0--0--0--0--0--0--2--4--|--2--2--2--2--2--2--2--2--2--2--2--2--|
---------------------------------------|--------------------------------------|


                                       
--------------------------------------|
--2--2--2--2--2--2--2-----2-----------|
-----------------------2--------------|
-----------------------------0--0--0--|


                                          
-----------------------------------------|
-----------------------------------------|
--5--5-5-5--5--5-5-5--5--5-5-7--5--4--2--|
-----------------------------------------|


                                                                              
--------------------------------------|--------------------------------------|
--------------------------------------|--------------------------------------|
--0--0--0--0--0--0--0--0-----0--2--4--|--2--2--2--2--2--2--2--2--2--2--2--2--|
--------------------------0-----------|--------------------------------------|


                                                                
--------------------7h9/13--11--9--7-----|---------------------|
--------------9--9--------------------9--|-----------4---------|
--7--7--7--7-----------------------------|----------------7----|
-----------------------------------------|--5------------------|


                                                                
---------------------|---------------------|-------------------|
---------------------|---------------------|-------------------|
--5--------5----4----|--4------------------|-------------------|
---------------------|-----------5----4----|--5----------------|


                                            
----------------------|-------------------||
-----------7-------7--|-------------------||
--7-------------------|-------------------||
----------------------|--5----------------||
Comments