Helloween - Victim Of Fate Chords & Tabs

 

Victim Of Fate Chords & Tabs

Helloween Chords & Tabs

Version: 2 Type: Bass Tab 0 ratings
1 star 2 stars 3 stars 4 stars 5 stars
comments

Victim Of Fate Bass Tab

G||------|------|------|------|-------------------|------------------|
D||------|------|------|------|-------------------|------------------|
A||------|------|------|------|-------------------|------------------|
E||------|------|------|------|--5----------------|------------------|


                                                                               
-------------------|-------------------|--------------------------------------|
-------------------|-------------------|--------------------------------------|
-------------------|-------------------|--------------------------------------|
--1----------------|--3----------------|--5--5--5--5--5--5--5--5--5--5--5--5--|


                                                                              
--------------------------------------|--------------------------------------|
--------------------------------------|--------------------------------------|
--------------------------------------|--------------------------------------|
--5--5--5--5--5--5--5--5--5--5--5--5--|--1--1--1--1--1--1--1--1--1--1--1--1--|


                                                                              
--------------------------------------|--------------------------------------|
--------------------------------------|--------------------------------------|
--------------------3--3--3--2--3--2--|--------------------------------------|
--3--3--3--3--3--3--------------------|--5--5--5--5--5--5--5--5--5--5--5--5--|


                                                                              
--------------------------------------|--------------------------------------|
--------------------------------------|--------------------------------------|
--------------------------------------|--------------------------------------|
--5--5--5--5--5--5--5--5--5--5--5--5--|--1--1--1--1--1--1--1--1--1--1--1--1--|


                                                                      
--------------------------------------|------------------------------|
--------------------------------------|------------------------------|
--------------------3--3--3--2--3--2--|------------------------------|
--3--3--3--3--3--3--------------------|--2----2--2--2--2----2--2--2--|


                                                                      
------------------------------|--------------------------------------|
------------------------------|--------------------------------------|
------------------------------|--------------------------------------|
--2----2--2--2--2----2--2--2--|--0--0--0--0--0--0--5--5--5--4--4--4--|


                                                              
------------------------------|------------------------------|
------------------------------|------------------------------|
-----------------------2------|------------------------------|
--2--2--2--2--2--2--2---------|--2----2--2--2--2----2--2--2--|


                                                                      
------------------------------|--------------------------------------|
------------------------------|--------------------------------------|
------------------------------|--------------------------------------|
--2----2--2--2--2----2--2--2--|--0--0--0--0--0--0--5--5--5--4--4--4--|


                                                                      
------------------------------|--------------------------------------|
------------------------------|--------------------------------------|
-----------------------2------|--------------------------------------|
--2--2--2--2--2--2--2---------|--3--3--3--3--3--3--3--3--3--3--3--3--|


                                                                              
--------------------------------------|--------------------------------------|
--------------------------------------|--------------------------------------|
--------------------------------------|--2--2--2--2--2--2--2--2--2--2--2--2--|
--3--3--3--3--3--3--3--3--3--3--3--3--|--------------------------------------|


                                                                              
--------------------------------------|--------------------------------------|
--------------------------------------|--------------------------------------|
--2--2--2--2--2--2--2--2--2--2--2--2--|--3--3--3--3--3--3--3--3--3--3--3--3--|
--------------------------------------|--------------------------------------|


                                                                              
--------------------------------------|--------------------------------------|
--------------------------------------|--------------------------------------|
--3--3--3--3--3--3--3--3--3--3--3--3--|--5--5--5--5--5--5--5--5--5--5--5--5--|
--------------------------------------|--------------------------------------|


                                                                              
--------------------------------------|--------------------------------------|
--------------------------------------|--------------------------------------|
--1--1--1--0--0--0--------------------|--7--7--7--7--7--7--7--7--7--7--7--7--|
--------------------1--1--1--1--0--0--|--------------------------------------|


                                                                           
-----------------------------------|--------------------------------------|
-----------------------------------|--------------------------------------|
--7--7--7--7--7--7--3----3----5----|--7--7--7--7--7--7--7--7--7--7--7--7--|
-----------------------------------|--------------------------------------|


                                                                             
-------------------------------------|--------------------------------------|
-------------------------------------|--------------------------------------|
--7--7--7--7--7--7--10----10----9----|--5--5--5--5--5--5--5--5--5--5--5--5--|
-------------------------------------|--------------------------------------|


                                                                             
-------------------------------------|--------------------------------------|
-------------------------------------|--------------------------------------|
--5--5--5--5--5--5--10----10----9----|--7--7--7--7--7--7--7--7--7--7--7--7--|
-------------------------------------|--------------------------------------|


                                                                           
-----------------------------------|--------------------------------------|
-----------------------------------|--------------------------------------|
--7--7--7--7--7--7--3----3----5----|--7--7--7--7--7--7--7--7--7--7--7--7--|
-----------------------------------|--------------------------------------|


                                                                           
-----------------------------------|--------------------------------------|
-----------------------------------|--------------------------------------|
--7--7--7--7--7--7--3----3----5----|--7--7--7--7--7--7--7--7--7--7--7--7--|
-----------------------------------|--------------------------------------|


                                                                             
-------------------------------------|--------------------------------------|
-------------------------------------|--------------------------------------|
--7--7--7--7--7--7--10----10----9----|--5--5--5--5--5--5--5--5--5--5--5--5--|
-------------------------------------|--------------------------------------|


                                                                             
-------------------------------------|--------------------------------------|
-------------------------------------|--------------------------------------|
--5--5--5--5--5--5--10----10----9----|--7--7--7--7--7--7--7--7--7--7--7--7--|
-------------------------------------|--------------------------------------|


                                                                           
-----------------------------------|--------------------------------------|
-----------------------------------|--------------------------------------|
--7--7--7--7--7--7--3----3----2----|--------------------------------------|
-----------------------------------|--5--5--5--5--5--5--5--5--5--5--5--5--|


                                                                              
--------------------------------------|--------------------------------------|
--------------------------------------|--------------------------------------|
--------------------------------------|--------------------------------------|
--5--5--5--5--5--5--5--5--5--5--5--5--|--1--1--1--1--1--1--1--1--1--1--1--1--|


                                                                              
--------------------------------------|--------------------------------------|
--------------------------------------|--------------------------------------|
--------------------3--3--3--2--3--2--|--------------------------------------|
--3--3--3--3--3--3--------------------|--5--5--5--5--5--5--5--5--5--5--5--5--|


                                                                              
--------------------------------------|--------------------------------------|
--------------------------------------|--------------------------------------|
--------------------------------------|--------------------------------------|
--5--5--5--5--5--5--5--5--5--5--5--5--|--1--1--1--1--1--1--1--1--1--1--1--1--|


                                                                      
--------------------------------------|------------------------------|
--------------------------------------|------------------------------|
--------------------3--3--3--2--3--2--|------------------------------|
--3--3--3--3--3--3--------------------|--2----2--2--2--2----2--2--2--|


                                                                      
------------------------------|--------------------------------------|
------------------------------|--------------------------------------|
------------------------------|--------------------------------------|
--2----2--2--2--2----2--2--2--|--0--0--0--0--0--0--5--5--5--4--4--4--|


                                                              
------------------------------|------------------------------|
------------------------------|------------------------------|
-----------------------2------|------------------------------|
--2--2--2--2--2--2--2---------|--2----2--2--2--2----2--2--2--|


                                                                      
------------------------------|--------------------------------------|
------------------------------|--------------------------------------|
------------------------------|--------------------------------------|
--2----2--2--2--2----2--2--2--|--0--0--0--0--0--0--5--5--5--4--4--4--|


                                                                      
------------------------------|--------------------------------------|
------------------------------|--------------------------------------|
-----------------------2------|--------------------------------------|
--2--2--2--2--2--2--2---------|--3--3--3--3--3--3--3--3--3--3--3--3--|


                                                                              
--------------------------------------|--------------------------------------|
--------------------------------------|--------------------------------------|
--------------------------------------|--2--2--2--2--2--2--2--2--2--2--2--2--|
--3--3--3--3--3--3--3--3--3--3--3--3--|--------------------------------------|


                                                                              
--------------------------------------|--------------------------------------|
--------------------------------------|--------------------------------------|
--2--2--2--2--2--2--2--2--2--2--2--2--|--3--3--3--3--3--3--3--3--3--3--3--3--|
--------------------------------------|--------------------------------------|

[ Tab from: http://www.guitartabs.cc/tabs/h/helloween/victim_of_fate_btab_ver_2.html ]
                                                                              
--------------------------------------|--------------------------------------|
--------------------------------------|--------------------------------------|
--3--3--3--3--3--3--3--3--3--3--3--3--|--5--5--5--5--5--5--5--5--5--5--5--5--|
--------------------------------------|--------------------------------------|


                                                                              
--------------------------------------|--------------------------------------|
--------------------------------------|--------------------------------------|
--1--1--1--0--0--0--------------------|--7--7--7--7--7--7--7--7--7--7--7--7--|
--------------------1--1--1--1--0--0--|--------------------------------------|


                                                                           
-----------------------------------|--------------------------------------|
-----------------------------------|--------------------------------------|
--7--7--7--7--7--7--3----3----5----|--7--7--7--7--7--7--7--7--7--7--7--7--|
-----------------------------------|--------------------------------------|


                                                                             
-------------------------------------|--------------------------------------|
-------------------------------------|--------------------------------------|
--7--7--7--7--7--7--10----10----9----|--5--5--5--5--5--5--5--5--5--5--5--5--|
-------------------------------------|--------------------------------------|


                                                                             
-------------------------------------|--------------------------------------|
-------------------------------------|--------------------------------------|
--5--5--5--5--5--5--10----10----9----|--7--7--7--7--7--7--7--7--7--7--7--7--|
-------------------------------------|--------------------------------------|


                                                                           
-----------------------------------|--------------------------------------|
-----------------------------------|--------------------------------------|
--7--7--7--7--7--7--3----3----5----|--7--7--7--7--7--7--7--7--7--7--7--7--|
-----------------------------------|--------------------------------------|


                                                                           
-----------------------------------|--------------------------------------|
-----------------------------------|--------------------------------------|
--7--7--7--7--7--7--3----3----5----|--7--7--7--7--7--7--7--7--7--7--7--7--|
-----------------------------------|--------------------------------------|


                                                                             
-------------------------------------|--------------------------------------|
-------------------------------------|--------------------------------------|
--7--7--7--7--7--7--10----10----9----|--5--5--5--5--5--5--5--5--5--5--5--5--|
-------------------------------------|--------------------------------------|


                                                                             
-------------------------------------|--------------------------------------|
-------------------------------------|--------------------------------------|
--5--5--5--5--5--5--10----10----9----|--7--7--7--7--7--7--7--7--7--7--7--7--|
-------------------------------------|--------------------------------------|


                                                                           
-----------------------------------|--------------------------------------|
-----------------------------------|--------------------------------------|
--7--7--7--7--7--7--3----3----2----|--------------------------------------|
-----------------------------------|--5--5--5--5--5--5--5--5--5--5--5--5--|


                                                                              
--------------------------------------|--------------------------------------|
--------------------------------------|--------------------------------------|
--------------------------------------|--------------------------------------|
--5--5--5--5--5--5--5--5--5--5--5--5--|--1--1--1--1--1--1--1--1--1--1--1--1--|


                                                                              
--------------------------------------|--------------------------------------|
--------------------------------------|--------------------------------------|
--------------------3--3--3--2--3--2--|--------------------------------------|
--3--3--3--3--3--3--------------------|--5--5--5--5--5--5--5--5--5--5--5--5--|


                                                                              
--------------------------------------|--------------------------------------|
--------------------------------------|--------------------------------------|
--------------------------------------|--------------------------------------|
--5--5--5--5--5--5--5--5--5--5--5--5--|--1--1--1--1--1--1--1--1--1--1--1--1--|


                                                                              
--------------------------------------|-------------------|------------------|
--------------------------------------|-------------------|------------------|
--------------------3--3--3--2--3--2--|--2----------------|------------------|
--3--3--3--3--3--3--------------------|--0----------------|------------------|


                                                          
------------------|------------------|-------------------|
------------------|------------------|-------------------|
------------------|------------------|--7----------------|
------------------|------------------|-------------------|


                                                                
----------------------|-------------------|--------------------|
----------------------|-------------------|--------------------|
------7----9----10----|--3----------------|----------3----2----|
----------------------|-------------------|--------------------|


                                                              
-------------------|---------------------|-------------------|
-------------------|---------------------|-------------------|
--0----------------|------0----2----3----|--2----------------|
-------------------|---------------------|-------------------|


                                                              
------------------|-------------------|----------------------|
------------------|-------------------|----------------------|
------------------|--7----------------|------7----9----10----|
------------------|-------------------|----------------------|


                                                             
-------------------|--------------------|-------------------|
-------------------|--------------------|-------------------|
--3----------------|----------3----2----|--0----------------|
-------------------|--------------------|-------------------|


                                                             
---------------------|-------------------|------------------|
---------------------|-------------------|------------------|
------0----2----3----|--2----------------|------------------|
---------------------|-------------------|------------------|


                                                               
-------------------|----------------------|-------------------|
-------------------|----------------------|-------------------|
--7----------------|------7----9----10----|--3----------------|
-------------------|----------------------|-------------------|


                                                               
--------------------|-------------------|---------------------|
--------------------|-------------------|---------------------|
----------3----2----|--0----------------|------0----2----3----|
--------------------|-------------------|---------------------|


                                                           
-------------------|------------------|-------------------|
-------------------|------------------|-------------------|
--2----------------|------------------|--7----------------|
-------------------|------------------|-------------------|


                                                                
----------------------|-------------------|--------------------|
----------------------|-------------------|--------------------|
------7----9----10----|--3----------------|----------3----2----|
----------------------|-------------------|--------------------|


                                                              
-------------------|---------------------|-------------------|
-------------------|---------------------|-------------------|
--0----------------|------0----2----3----|--2----------------|
-------------------|---------------------|-------------------|


                                                                              
------------------|-------------------|------------------|-------------------|
------------------|-------------------|------------------|-------------------|
------------------|--7----------------|------------------|--3----------------|
------------------|-------------------|------------------|-------------------|


                                                                              
------------------|-------------------|------------------|-------------------|
------------------|-------------------|------------------|-------------------|
------------------|--0----------------|------------------|--2----------------|
------------------|-------------------|------------------|-------------------|


                                                                              
------------------|-------------------|------------------|-------------------|
------------------|-------------------|------------------|-------------------|
------------------|--7----------------|------------------|--3----------------|
------------------|-------------------|------------------|-------------------|


                                                                              
------------------|-------------------|------------------|-------------------|
------------------|-------------------|------------------|-------------------|
------------------|--0----------------|------------------|--2----------------|
------------------|-------------------|------------------|-------------------|


                                                              
------------------|-------------------|----------------------|
------------------|-------------------|----------------------|
------------------|--7----------------|------7----9----10----|
------------------|-------------------|----------------------|


                                                             
-------------------|--------------------|-------------------|
-------------------|--------------------|-------------------|
--3----------------|----------3----2----|--0----------------|
-------------------|--------------------|-------------------|


                                                             
---------------------|-------------------|------------------|
---------------------|-------------------|------------------|
------0----2----3----|--2----------------|------------------|
---------------------|-------------------|------------------|


                                                               
-------------------|----------------------|-------------------|
-------------------|----------------------|-------------------|
--7----------------|------7----9----10----|--3----------------|
-------------------|----------------------|-------------------|


                                                               
--------------------|-------------------|---------------------|
--------------------|-------------------|---------------------|
----------3----2----|--0----------------|------0----2----3----|
--------------------|-------------------|---------------------|


                                                           
-------------------|------------------|------------------||
-------------------|------------------|------------------||
--2----------------|------------------|------------------||
-------------------|------------------|------------------||
Comments