Helloween - If I Could Fly Chords & Tabs

 

If I Could Fly Chords & Tabs

Helloween Chords & Tabs

Version: 1 Type: Tab

If I Could Fly Tab

-------------------------------------------------------------------------------
			     If I could fly - Helloween
-------------------------------------------------------------------------------
Tabbed by:Robert wallin
Email:Bobby-brain
[ Tab from: http://www.guitartabs.cc/tabs/h/helloween/if_i_could_fly_tab.html ]
Tuning:
Intro,Vers and ref:
e|---------------------------------------------------------------------------|
B|---------------------------------------------------------------------------|
G|---------------------------------------------------------------------------|
D|-------------------------------7----7--------------------------------9--9--|
A|-7-7-7-7--5-5-5-5--2-2-2-2-----5----5--7-7-7-7--5-5-5-5--2-2-2-2-----7--7--|
E|-5-5-5-5--3-3-3-3--0-0-0-0--0-0--0-0---5-5-5-5--3-3-3-3--0-0-0-0--0-0-0-0--|
     . .      . .      . .  . .  . .       . .      . .      . .  . . . .
 Solo: 
e|--------------------------------------------------------------15-15-17-----|
B|-7/8-8----------------------------------------------------------------15---|
G|-----9----7--7-9-------5---------------12-10-9-10-9-7-9-7-5-7--------------|
D|-----------11---7---5-7-7-5------------------------------------------------|
A|---------------------------7-6-5-------------------------------------------|
E|--------------------------------8-5-3-0------------------------------------|

e|---------------8---8-----12-13-15-17---------------------------------------|
B|--15-17----8-10-10--10--------------13-12-10-8-8---------------------------|
G|-------14---------9---9-9----------------9----9----------------------------|
D|---------------------------------------------------------------------------|
A|---------------------------------------------------------------------------|
E|---------------------------------------------------------------------------|
 Gitarr 2:
e|---------------------------------------------------------------------------|
B|---------------------------------------------------------------------------|
G|---------------------------------------------------------------------------|
D|---------------------------------------------------------------------------|
A|--7-7-7-7--3-3-3-3--7-7-7-7--3-3-3-3--7-7-7-7------------------------------|
E|--5-5-5-5--1-1-1-1--5-5-5-5--1-1-1-1--5-5-5-5------------------------------|