Helloween - I Can Chords & Tabs

 

I Can Chords & Tabs

Helloween Chords & Tabs

Version: 1 Type: Bass Tab 0 ratings
1 star 2 stars 3 stars 4 stars 5 stars
comments

I Can Bass Tab

Title: I can
Band: Helloween
Album: Better than raw

Transcribed by Franck Hetroy (Franck.Hetroy@ensimag.imag.fr)

First ten measures: nothing
Then:

intro:

||---------------------------|-----------|-----------|-----------|-----------|-----------|
||---------------------------|-----------|-----------|-----------|-----------|-----------|
||-----------3-5-----------3-|-3/(9)\(3)-|-3/(9)\(3)-|-3/(9)\(3)-|-3/(9)\(3)-|-3/(9)\(3)-|
||-5---3-5---------5---3-----|-----------|-----------|-----------|-----------|-----------|

chorus:

|---------------|-----------------|-----------------|-----------------|-----------------|-----------------|-----------------|-----------------|
|---------------|-----------------|-----------------|-----------------|-----------------|-----------------|-----------------|-----------------|
|-------3-------|---------1-------|---------3-------|-----------------|-0-0-0-0-0-0-0-0-|-0-0-0-0-0-0-0-0-|-0-0-0-0-0-0-0-0-|-0-0-0-0-0-0-0-0-|
|-5---5---5-5-5-|---3---3---3-3-3-|-5h6-6-6---6-6-6-|-3-3-3-3-3-3-3-3-|-----------------|-----------------|-----------------|-----------------|

verse:

|-----------------|-----------------|-----------------|-----------------|
|-----------------|-----------------|-----------------|-----------------|
|-0-0-0-0-0-0-0-0-|-0-0-0-0-0-0-0-0-|-0-0-0-0-0-0-0-0-|-0-------3-------|
|-----------------|-----------------|-----------------|---3-3-3---4-4-4-|

|-----------------|-----------------|-----------------|-----------------|
|-----------------|-----------------|-----------------|-----------------|
|-0-0-0-0-0-0-3-0-|-0-0-0-0-0-0-3-0-|-----------------|-----------------|
|-----------------|-----------------|-4-4-4-4-4-4-4-4-|-3-3-3-3-4-4-4-4-|

|-----------------|-----------------|-----------------|-----------------|
|-----------------|-----------------|-----------------|-----------------|
|-0-0-0-0-0-0-0-0-|-0-0-0-0-0-0-0-0-|-----------------|-----------------|
|-----------------|-----------------|-4-4-4-4-4-4-4-4-|-3-3-3-3-4-4-4-4-|
[ Tab from: http://www.guitartabs.cc/tabs/h/helloween/i_can_btab.html ]
|-----------------|-----------------|-----------------|-----------------|
|-----------------|-----------------|-----------------|-----------------|
|-0-0-0-0-0-0-0-0-|-0-0-0-0-0-0-0-0-|-----------------|-----------------|
|-----------------|-----------------|-4-4-4-4-4-4-4-4-|-3-3-3-3-4-4-4-4-|

pre chorus:

|---------------|-----------------|---------------|-----------------|---------------|-----------------|
|-------------4-|---4---1-4-1-----|---------------|-----------------|-------------1-|---1-----1-------|
|-2p1h2-4-4-2---|-------------4-2-|-2p1h2-4-4-2-4-|---4---2-4-2-4-2-|-2p1h2-4-4-2---|-------4---4-2-4-|
|---------------|-----------------|---------------|-----------------|---------------|-----------------|

at the speed of light !

bridge:

|---------------|---------------|---------------|---------------|
|---------------|---------------|---------------|---------------|
|-4----2----0---|-4----2----0---|-4----2----0---|-4----2----0---|
|---------------|---------------|---------------|---------------|

during the guitar solo:

|-----------------|-----------------|-----------------|-----------------|
|-----------------|-----------------|-----------------|-----------------|
|-4-4-4-4-4-4-4-4-|-1-1-1-1-1-1-1-1-|-2-2-2-2-2-2-2-2-|-----------------|
|-----------------|-----------------|-----------------|-4-4-4-4-4-4-4-4-|

|-----------------|-----------------|-----------------|-----------------|
|-----------------|-----------------|-----------------|-1-3-4-3-1-1-1-1-|
|-----------------|-1-1-1-1-1-1-1-1-|-----------------|-----------------|
|-3-3-3-3-3-3-3-3-|-----------------|-3-3-3-3-3-3-3-3-|-----------------|

|-----------------|-----------------|-----------------|-----------------|
|-----------------|-----------------|-----------------|-----------------|
|-----------------|-1-1-1-1-1-1-1-1-|-2-2-2-2-2-2-2-2-|-4-4-4-4-4-4-4-4-|
|-3-3-3-3-3-3-3-3-|-----------------|-----------------|-----------------|

|-----------------|-----------------|-----------------|
|-1-1-1-1-1-1-1-1-|-1-1-1-1-1-1-1-1-|-1-2-4-4-4-4-4-4-|
|-----------------|-----------------|-----------------|
|-----------------|-----------------|-----------------|


SONG STRUCTURE:
--------------

intro
chorus (3 times)
verse
pre-chorus (2 times)
chorus (3 times)
verse
pre-chorus (2 times)
chorus (3 times)
bridge
guitar solo
pre-chorus (2 times)
chorus (3 times)
bridge (except the last measure)

I'm not sure about the bridge.

Comments and suggestions are welcome:
-> please e-mail me: Franck.Hetroy@ensimag.imag.fr
Comments