Helloween - Halloween Chords & Tabs

 

Halloween Chords & Tabs

Helloween Chords & Tabs

Version: 1 Type: Bass Tab 0 ratings
1 star 2 stars 3 stars 4 stars 5 stars
comments

Halloween Bass Tab

   
Author/Artist: Helloween
Title: Halloween
Album: Keeper Of The Seven Keys Part 1
Transcribed by: André Baida da Silva from BRAZIL
Email: andrecp@bestway.com.br


Hello(ween) friends! The only thing that I have to say is:
"Everybody who will be spelling the song  with 
an  and the group with an  will immediatly be turned
into a big ugly half-price-selling pumpkin!!" hahaha

See ya

Tune: E A D G
P.s. The double-bar = many times(Listen the song to know how many times)


Intro.

E----------------------------------------------------------|-------------------
A---------------------2--------------------4--4--4--4-4-4--|-------------------
D----------2--1-------------------------6------------------|--------2-1-----1--
G----0-------------------3-2---0---------------------------|---0---------------
                                                                              

E-----------------------------------|------------------------------------------
A-2------------------4-4-4-4--0-4-5-|----------------2-------------4-4-4-4-4---
D-----------------6-----------------|--------2-1-1-1-------------6-------------
G----3-2----0-----------------------|--0-0-0-----------3-2-0-0-0---------------
                                                                              

E-------------------------------------|---
A-4-4-----------------2-------------4-|---
D-----------2-1-1-1-1-------------6---|---
G-----0-0-0-------------3-2-0-0-0-----|---
       

Riff 1.                                                                       

E------------------------------------------------------------------------------
A------------------------------------------------------------------------------
D--5h7-7-7-7-7-7-5h7-7-7-7-7-7-7-5h7-7-7-7-------9h10--7-7-7-7-7-7-7-7-7-7-7---
G------------------------------------------7-6-6-------------------------------
                                                                              

E------------------------------------------------------------------------------
A------------------------------------------------------------------------------
D---7-------------5-7-7-7-7-7-7-7-7-7-7-7-7-7-7-7-7-------9h10-7-7-7-7-7-7-7-7-
G-----0-7-0-6-0-3-----------------------------------7-6-6----------------------
                                                                              

E-------------|---
A-------------|---
D-7-7-5-5-3-3-|---
G-------------|---
                                                                              

Masquerade, masquerade....
Meet the others....

E------------------------------------------------------------------------------
A------------------------------------------------------------------------------
D---7-7-7-7-7-7-7-7-7-7-7----5-7-8-----7-8-7-7-7-7-7-7-7-7-7-7-7-7-7-7-3-3-3---
G--------------------------8---------------------------------------------------
                                                                              

E-----------------------------------------------||---
A-----------------------------------------------||---
D-3-3-3-3-5-5-5-5-5-5---------------------------||---
G---------------------0-0-0-0-0-0-0-0-0-0-0-0-0-||---
                                                                              

But watch out...Beware
Listen....Take care

E-----------7------------------9---------------------------------------||---
A-------------------5-4------------------------------9-9-7-7-----------||---
D---5-5-5-5---5-5-5-----7-5--7---7-7-7-7-7-7-7-7-7-7---------10-10-9-9-||---
G----------------------------------------------------------------------||---
                                                                              

In the streets of halloween...

E------------------------------------------------------------------------------
A---------------------------------------------------------------------------5--
D-------------------10-10-10-10-10-10-10-10-----------------7-7-7-7-7-7--------
G---8-8-8-8-8-8-8-8-------------------------7-7-7-7-7-7-7-7-------------0-2----
                                                                              

E------------------------------------------------------------------------------
A-5-5-5-5-5-5-5----------------------------------------------------------------
D---------------5-5-5-5-5-5-5-5-------------------------7-9-10-10-10-10-10-10--
G-------------------------------0-0-0-0-0-0-0-0-0-0-0-0------------------------
                                                                              

E------------------------------------------------------------------------------
A-----------------------------------------------------------------5-5-5-5-5-5--
D-10-10-----------------------------------------7-7-7-7-7-7-7------------------
G-------10-10-10-10-10-10-10-10-7-7-7-7-7-7-7-7---------------0-2--------------
                                                                              

E------------------------------------------------------------------------------
A-5-5--------------------------------------------------------------------------
D-----5-5-5-5-5-5-5-5-------------------------------------------------2-2-2-2--
G---------------------2-2-2-2-2-2-2-2-3-3-3-3-3-3-3-3-5-5-5-5-5-5-5-5----------
                                                                              
		AHHH!! It's halloween...
E---------|--------------------------------------------------------------------
A---------|-2-------------5-4-------2-----------------------------5-4----2-----
D-2-2-2-2-|---------3-2-------5----------3-2---5-2-5--------3-2-------5----5---
G---------|---------------------------------------------0----------------------
                                                                              
				Tonight!!
E-----------------|---
A-----------------|---
D-3-3-3-3-3-3-3-3-|---
G-----------------|---
                                 

Riff 1.                                                                       

E------------------------------------------------------------------------------
A------------------------------------------------------------------------------
D--5h7-7-7-7-7-7-5h7-7-7-7-7-7-7-5h7-7-7-7-------9h10--7-7-7-7-7-7-7-7-7-7-7---
G------------------------------------------7-6-6-------------------------------
                                                                              

E------------------------------------------------------------------------------
A------------------------------------------------------------------------------
D---7-------------5-7-7-7-7-7-7-7-7-7-7-7-7-7-7-7-7-------9h10-7-7-7-7-7-7-7-7-
G-----0-7-0-6-0-3-----------------------------------7-6-6----------------------
                                                                              

E-------------|---
A-------------|---
D-7-7-5-5-3-3-|---
G-------------|---
                                                                              

Someone's sitting...
Bad luck if....

E------------------------------------------------------------------------------
A------------------------------------------------------------------------------
D---7-7-7-7-7-7-7-7-7-7-7----5-7-8-----7-8-7-7-7-7-7-7-7-7-7-7-7-7-7-7-3-3-3---
G--------------------------8---------------------------------------------------
                                                                              

E-----------------------------------------------||---
A-----------------------------------------------||---
D-3-3-3-3-5-5-5-5-5-5---------------------------||---
G---------------------0-0-0-0-0-0-0-0-0-0-0-0-0-||---
                                                                              

But watch out...Beware
Listen....Take care

E-----------7------------------9---------------------------------------||---
A-------------------5-4------------------------------9-9-7-7-----------||---
D---5-5-5-5---5-5-5-----7-5--7---7-7-7-7-7-7-7-7-7-7---------10-10-9-9-||---
G----------------------------------------------------------------------||---
                                                                              

In the streets of halloween...

E------------------------------------------------------------------------------
A---------------------------------------------------------------------------5--
D-------------------10-10-10-10-10-10-10-10-----------------7-7-7-7-7-7--------
G---8-8-8-8-8-8-8-8-------------------------7-7-7-7-7-7-7-7-------------0-2----
                                                                              

E------------------------------------------------------------------------------
A-5-5-5-5-5-5-5----------------------------------------------------------------
D---------------5-5-5-5-5-5-5-5-------------------------7-9-10-10-10-10-10-10--
G-------------------------------0-0-0-0-0-0-0-0-0-0-0-0------------------------
                                                                              

E------------------------------------------------------------------------------
A-----------------------------------------------------------------5-5-5-5-5-5--
D-10-10-----------------------------------------7-7-7-7-7-7-7------------------
G-------10-10-10-10-10-10-10-10-7-7-7-7-7-7-7-7---------------0-2--------------
                                                                              

E------------------------------------------------------------------------------
A-5-5--------------------------------------------------------------------------
D-----5-5-5-5-5-5-5-5-------------------------------------------------2-2-2-2--
G---------------------2-2-2-2-2-2-2-2-3-3-3-3-3-3-3-3-5-5-5-5-5-5-5-5----------
                                                                              
		AHHH!! It's halloween...
E---------|--------------------------------------------------------------------
A---------|-2-------------5-4-------2-----------------------------5-4----2-----
D-2-2-2-2-|---------3-2-------5----------3-2---5-2-5--------3-2-------5----5---
G---------|---------------------------------------------0----------------------
                                                                              
				Tonight!!
E-----------------|---
A-----------------|---
D-3-3-3-3-3-3-3-3-|---
G-----------------|---
                                             
Riff 2.

E-----|------|-------|---7--5--4--------|------|--------|--7--5--4-----|-------
A-----|------|-------|---9--7--5--------|------|--------|--9--7--5-----|-------
D---7-|--7-5-|-5-5-7-|-------------5--7-|--7-5-|--5-5-7-|------------5-|-------
G-----|------|-------|------------------|------|--------|--------------|-------
                                                                              

Listen...now....we are calling you..

E---------------9-------------7-----9-----7--------------||-----5------5----|--
A-----------------------------------------------10-----9-||-----------------|--
D---7-7-7-7-7-7---7-7-7-7-7-7---7-7---7-7---7-7----7-7---||-3-3-3-3-3-3-3-3-|--
G--------------------------------------------------------||-----------------|--
                                                                              
Riff 3.									Solo 1.

E-----------------------------------------------------||-----------------------
A------------------------------------0-----1-2--------||-----------------------
D-----------5-5-5-5-5-7---3-3-3-3-2----3-2------2-----||-------------------5---
G---0-0-0-0---------------------------------------3-2-||-0-0-0-0-0-0-0-0-0-----
                                                                              

E-----------------------------------------------------------------------||---
A-------------------------------------------------------0-----1-2-------||---
D-5-5-5-5-5-5-5-7-7-7-7-7-7-7-7-7-3-3-3-3-3-3-2-2-2-2-2---3-2-----2-----||---
G-------------------------------------------------------------------3-2-||---
                                                                              

Black is the night....

E--------------------------------------------------------------------------||--
A--------------------------------------------------------------------------||--
D-------------------------------------------------------3--3-2-3-5-3-2-----||--
G---0-0-0-0-0-0-0-0-3-0-3-0-0-0-0-0-0-0-0-3-0-3-0-0-0-0----------------3-2-||--
                                                                              

Solo 2. 

E----------------------------------------------------------------------------
A----------------------------------------------------------------------------
D-------------------2-------------------2-----------------2---------------2--
G--0-0-0-0-0-0-0-0-0-0-0-0-0-0-0-0-0-0-0-0-0-0-0-0-0-0-0-0-0-0-0-0-0-0-0-0---
                                                                              

E-------------------------------------------------------------------------||-
A---------4-----4-----4-----4-----4------4------4-----4-----4------4-----4||-
D-------------------------------------------------------------------------||-
G--2-2-2-2-2-2-2-2-2-2-2-2-2-2-2-2--2-2-2--2-2-2-2-2-2-2-2-2-2--2-2-2-2-2-||-
                                                                              

Darkness...
[ Tab from: http://www.guitartabs.cc/tabs/h/helloween/halloween_btab.html ]
E------------------------------------------------------------------------------
A------------------------------------------------------------------------------
D-------------------------------------------------------4/7--------------------
G---0-0-----------2-2---------0-0----------2-2-----------------0-0-------------
                                                                              

E--------------------------------------------------|-------------
A--------------------------------------------------|---4----2----
D--------------------------------------------------|-------------
G-2-2-----------0-0-----------2-2------2-------2---|-------------
                                                                 

Slow Solo.             

E---------7-----------------------------------------------||---
A--------------------------------4---4--------------------||---
D---5---5----5-4-5-7-5-4----------------------------------||---
G------------------------5-4---2---2------2-0-2-4-5-2-4-5-||---
                                                                              
Pre Solo 3.

E-------------------------------|---
A-------------------------------|---
D---5-5-5-5-5---5-4-5-7-5-4-----|---
G---------------------------5-4-|---
                                                                              

Solo 3.

E------------------------------------------------------------------------------
A------------------------------------------------------------------------------
D-----------------------3-3-3-3-3-3-2-3-2---------------------------3-3-3-3-3--
G---0-0-0-0-0-0-0-0-2-3-------------------5-3-2-0-0-0-0-0-0-0-0-2-3------------
                                                                              

E------------------------------------------------------------------------------
A------------------------------------------------------------------------------
D-2-3-2----------------------------5-5-5-5-5-4-5-4-2-----------------------5---
G-------5-3-2--2-2-2-2-2-2-2-2-4-5-------------------5-4-2-2-2-2-2-2-2-4-5-----
                                                                              

E---------------------||---
A---------------------||---
D-5-5-5-5-4-5-4-2-----||---
G-----------------5-4-||---
                                                                              

I am the one...

E------------------------------------------------------------------------------
A-----------------------------------------------------14-----------------------
D------------------------------------------------------------------------------
G---0-0-0-0-0-0-0-0-0-0-0-0-0-0-0-0-0-0-0-0-0-0-0-0-0----0-0-0-0-0-0-0-0-0-0---
                                                                              

E-------------------------------------------||---
A-------------------------14-------14-------||---
D-------------------------------------------||---
G-0-0-0-0-0-0-0-0-0-0-0-0----0-0-0----0-0-0-||---
                                                                              

I'll show you....

E-------------------------------------------------------------------||---
A--------------------------------------------------9-9--------10-10-||---
D-------------------------------------------7-9-10-----7-9-10-------||---
G---0-0-0-0-0-0-0-0-0-0-0-0-0-0-0-0-0-0-0-0-------------------------||---
                                                                              

				Save me....

E------------------------------------------------------------------------------
A----------------------------------------------------------9-9---------10-10---
D---7-7-7-7-7-5-5-5-5-5-----------------------------7-9-10------7-9-10---------
G-----------------------8-8-8-8-8-8-8-8-8-8-8-8-8-8----------------------------
                                                                              
				Give me...
				
E------------------------------------------------------------------------------
A----------------------------------------------------------9-9---------10-10---
D---7-7-7-7-7-5-5-5-5-5-----------------------------7-9-10------7-9-10---------
G-----------------------8-8-8-8-8-8-8-8-8-8-8-8-8-8----------------------------

				I'll fight.....			
	
E------------------------------------------------------------------------------
A----------------------------------------------------------9-9---------10-10---
D---7-7-7-7-7-5-5-5-5-5-----------------------------7-9-10------7-9-10---------
G-----------------------8-8-8-8-8-8-8-8-8-8-8-8-8-8----------------------------

				Deliverance....

E--------------------------------------------------------------------------|--
A--------------------------------------------------------------------------|--
D---7-7-7-7-7-5-5-5-5-5----------------------------------------------------|--
G-----------------------8-8-8-8-8-8-8-8-8-8-8-8-8-8-7-7-7-7-7-7-7-7-7-7-7--|--


Solo 4.

E------------------------------------------------------------------------------
A------------------------------------------------------------------------------
D-----------------------------------7-7-7-7-7-7-7-7-7-7-7-7-7-7-7-7------------
G---5-5-5-5-5-5-5-5-5-5-5-5-5-5-5-5---------------------------------5-5-5-5-5--
                                                                              

E---------------------------------------------------------------------------||-
A---------------------------------------------------------------------7-7-7-||-
D-----------------------7-7-7-7-7-7-7-7-7-7-7-7-7-7-7-7---7---7-------------||-
G-5-5-5-5-5-5-5-5-5-5-5-------------------------------------7-----4-5-------||-
                                                                              

E------------------------------------------------------------------------------
A------------------------------------------------------------------------------
D---2-2-2-2-2-2-2-2-2-----------------2-2-2-2-2-2-2-2-----------------2-2-2-2--
G---------------------2-2-2-2-2-2-2-2-----------------3-3-3-3-3-3-3-3----------
                                                                              

E-----------------------------------------||-----|---|---|---|---|---|---|---|-
A-----------------------------------------||--2--|---|---|-2-|-2-|---|---|---|-
D-2-2-2-2-----------------2-2-2-2-2-2-2-2-||-----|-3-|-2-|---|---|-3-|-2-|---|-
G---------2-2-2-2-2-2-2-2-----------------||-----|---|---|---|---|---|---|-0-|-
                                                                              

E------------------------------------------------------------------------------
A------------------------------------------------------------------------------
D---2-2-2-2-2-2-2-2-2-------------2---2--2-2-2-2-2-2-2-2-------------2---2-----
G---------------------2-2-2-2-2-2---2--------------------2-2-2-2-2-2---2-------
                                                                              

E------|---|---|---|---|---|---|---|-------------------------------------------
A---2--|---|---|-2-|-2-|---|---|---|-------------------------------------------
D------|-3-|-2-|---|---|-3-|-2-|---|-2-2-2-2-2-2-2-2-------------2---2--2-2-2--
G------|---|---|---|---|---|---|-0-|-----------------2-2-2-2-2-2---2-----------
                                                                              

E------------------------------------------------------------------------------
A------------------------------2-2-2-2-2-2-2-2-------------2---2-2-2-2-2-2-2---
D-2-2-2-2-2-------------2---2------------------2-2-2-2-2-2---2-----------------
G-----------2-2-2-2-2-2---2----------------------------------------------------
                                                                              
					Duet.

E-------------------------|-11--9--8-----------------------------------12--11--
A-2-2---------------2---2-|-----------9--12--10--9------9----------------------
D-----2-2-2-2-2-2-2---2---|-------------------------10-----12--10--------------
G-------------------------|----------------------------------------12----------
                                                                              

E--9--8----------------------------------------|---
A--------10--9--7------------------------------|---
D------------------10--9--7--6-----------------|---
G-------------------------------8--7--5--3--2--|---
                                                   
                           
But watch out...Beware
Listen....Take care

E-----------7------------------9---------------------------------------||---
A-------------------5-4------------------------------9-9-7-7-----------||---
D---5-5-5-5---5-5-5-----7-5--7---7-7-7-7-7-7-7-7-7-7---------10-10-9-9-||---
G----------------------------------------------------------------------||---
                                                                              

In the streets of halloween...

E------------------------------------------------------------------------------
A---------------------------------------------------------------------------5--
D-------------------10-10-10-10-10-10-10-10-----------------7-7-7-7-7-7--------
G---8-8-8-8-8-8-8-8-------------------------7-7-7-7-7-7-7-7-------------0-2----
                                                                              

E------------------------------------------------------------------------------
A-5-5-5-5-5-5-5----------------------------------------------------------------
D---------------5-5-5-5-5-5-5-5-------------------------7-9-10-10-10-10-10-10--
G-------------------------------0-0-0-0-0-0-0-0-0-0-0-0------------------------
                                                                              

E------------------------------------------------------------------------------
A-----------------------------------------------------------------5-5-5-5-5-5--
D-10-10-----------------------------------------7-7-7-7-7-7-7------------------
G-------10-10-10-10-10-10-10-10-7-7-7-7-7-7-7-7---------------0-2--------------
                                                                              

E------------------------------------------------------------------------------
A-5-5--------------------------------------------------------------------------
D-----5-5-5-5-5-5-5-5-------------------------------------------------2-2-2-2--
G---------------------2-2-2-2-2-2-2-2-3-3-3-3-3-3-3-3-5-5-5-5-5-5-5-5----------
                                                                              
		AHHH!! It's halloween...
E---------|--------------------------------------------------------------------------|--
A---------|-2-------------5-4-------2-----------------------------5-4----2-----------|--
D-2-2-2-2-|---------3-2-------5----------3-2---5-2-5--------3-2-------5----3-2-5-2-5-|--
G---------|---------------------------------------------0----------------------------|--

E----------------------------------------------------------------|--
A--2-------------5-4-------2-----------------------------5-4-----|--
D----------3-2-------5----------3-2---5-2-5--------3-2-------5---|--
G----------------------------------------------0-----------------|--

HALLOWEEN!!

E------|-----------|-----|-----|-----------|-----|-----------------------------
A------|-----------|-----|-----|-----------|-----|-----------------------------
D---7--|--5--5--7--|--5--|--7--|--5--5--7--|--5--|--7-7-7-7-7-7-7-7-7-7-5-5-5--
G------|-----------|-----|-----|-----------|-----|-----------------------------
                                                                              
									  Yeah, It's Halloween...

E-------------------------------------------------------||---------------------
A-------------------------------------------------------||---------------------
D-5-5-5-5-5-5-5-7-7-7-7-7-7-7-7-7-7-5-5-5-5-5-5-5-5-5-5-||7-7-7-7-7-7-7-7-5-5--
G-------------------------------------------------------||---------------------
                                                                              

E---------------------------------4--------------------------------------------
A-------------------------------4---4-5-4--------------------------------------
D-5-5-5-5-5-5-3-3-3-3-3-3-3-3-2------------7-7-7-7-7-7-7-7-5-5-5-5-5-5-5-5-3---
G------------------------------------------------------------------------------
                                                                              

E-------------------4-------|--------------------------------------------------
A-----------------4---4-5-4-|------9-----9---9------11-----------------12------
D-3-3-3-3-3-3-3-2-----------|--7-7---7-7---7----9-9----9-9-9-9-9-10-10----10---
G---------------------------|--------------------------------------------------
                                                                              

E-----------------------------|----------------------------------------------|-
A----12-----------------------|------9-----9---9------11---------------------|-
D-10----10-10---14-12-10-12-9-|--7-7---7-7---7----9-9----9-9-9-9-9--(10)-(2)-|-
G-----------------------------|----------------------------------------------|-
                                                                              
TONIGHT!!

E----------------------------------|---
A----------------------------------|---
D---7-7-7-7-7-7-7-7-7-7-------9-10-|---
G-----------------------7-6-6------|---                                                                              


End.
Comments