Helloween - Game Is Chords & Tabs

 

Game Is Chords & Tabs

Helloween Chords & Tabs

Version: 1 Type: Bass Tab 0 ratings
1 star 2 stars 3 stars 4 stars 5 stars
comments

Game Is Bass Tab

  
|---------|---------|-----------|------------------|
|---------|---------|-----------|------------------|
|---------|---------|-----0--4--|-5-5-5-5-5-5-5-5--|
|---------|---------|-----------|------------------|
 (Uli)                    (gtrs and bass kick in)

|-----------------|-----------------|-----------------|-----------------|
|-----------------|-----------------|-----------------|-----------------|
|-5-5-5-5-5-5-5-5-|-----------------|-----------------|-----------------|
|-----------------|-3-3-3-3-3-3-3-3-|-3-3-3-3-3-3-3-3-|-0-0-0-0-0-0-0-0-|


|-----------------|-----------------|-----------------|-----------------|
|-----------------|-----------------|-----------------|-----------------|
|-----------------|-0-0-0-0-0-0-0-0-|-4-4-4-4-4-4-4-4-|-5-5-5-5-5-5-5-5-|
|-0-0-0-0-0-0-0-0-|-----------------|-----------------|-----------------|


|-----------------|-----------------|-----------------|-----------------|
|-----------------|-----------------|-----------------|-----------------|
|-5-5-5-5-5-5-5-5-|-7-7-7-7-7-7-7-7-|-7-7-7-7-7-7-7-7-|-----------------|
|-----------------|-----------------|-----------------|-3-3-3-3-3-3-3-3-|


|-----------------|-----------------|-----------------|-----------------|
|-----------------|-----------------|-----------------|-----------------|
|-----------------|-0-0-0-0-0-0-0-0-|-4-4-4-4-4-4-4-4-|-5-5-5-5-5-5-5-5-|
|-3-3-3-3-3-3-3-3-|-----------------|-----------------|-----------------|
                                      (gtr+keys videogame melody)

|-----------------|-----------------|-----------------|-----------------|
|-----------------|-----------------|-----------------|-----------------|
|-5-5-5-5-5-5-5-5-|-----------------|-----------------|-----------------|
|-----------------|-7-7-7-7-7-7-7-7-|-7-7-7-7-7-7-7-7-|-3-3-3-3-3-3-3-3-|


|-----------------|-----------------|-----------------|-----------|
|-----------------|-----------------|-----------------|-----------|
|-0-0-0-0-0-0-0-0-|-5-5-5-5-5-5-5-5-|-5-5-5-5-5-5-5-5-|-5--5------|
|-----------------|-----------------|-----------------|-----------|
                                              VERSE 1 'Have you seen this...'

|---------|-----------|---------|-----------|
|---------|-----------|---------|-----------|
|---------|-----------|---------|-----------|
|---------|-7--7------|---------|-3--3------|
            

|---------|-----------|-----------|----------------|
|---------|-2--2------|-----------|----------------|
|---------|-----------|-4--4------|-5--5-5-5-5-5-5-|
|---------|-----------|-----------|----------------|
                                    BRIDGE 1 'For the rich and for the poor...'

|------------------|------------------|------------------|------------------|
|------------------|------------------|------------------|------------------|
|-(5)--5-5-5-5-5---|------------------|------------------|------------------|
|----------------7-|-(7)--7-7-7-7-7-7-|-(7)--7-7-7-7-7-3-|-(3)--3-3-3-3-3-3-|
                 

|------------------|------------------|------------------|------------------|
|----------------2-|-(2)--2-2-2-2-2---|----------------0-|-(0)--0-0-0-0-0-0-|
|------------------|----------------0-|-(0)--0-0-0-0-0---|------------------|
|-(3)--3-3-3-3-3---|------------------|------------------|------------------|
                 

|------------------|------------------|------------------|------------------|
|-(0)--0-0-0-0-0---|------------------|------------------|------------------|
|----------------2-|-(2)--2-2-2-2-2-2-|-(2)--2-2-2-2-2---|------------------|
|------------------|------------------|----------------3-|-(3)--3-3-3-3-3-3-|


|------------------|------------------|------------------|---------2-(2)--7---|
|----------------2-|-(2)--2-2-2-2-2-0-|-(0)--0-0-0-0-0-0-|-0--(0)-------------|
|------------------|------------------|------------------|--------------------|
|-(3)--3-3-3-3-3---|------------------|------------------|--------------------|
							   CHORUS 'The game is on...'	

|-(7)----6--4--|-------------------|---------------|------|
|--------------|-5--(5)------------|---------------|------|
|--------------|-------------------|---------------|------|
|--------------|---------3-(3)--3--|-(3)----(3)----|-0----|


|---------------|----------------2--|-2--0--------|---------2-(2)--7--|
|---------------|-------------------|-------4--2--|-0--(0)------------|
|------5--4--2--|-0--(0)------------|-------------|-------------------|
|-(0)-----------|---------0-(0)-----|-------------|-------------------|


|-(7)--11--9--7--|-------------------|---------------|-------------------|
|----------------|---------9-(9)-----|---------------|----------------5--|
|----------------|----------------7--|-(7)--5--4--2--|---------5-(5)-----|
|----------------|-0--(0)------------|---------------|-3--(3)------------|


|---------------|-----------------|-----------------|-----------------|
|-(5)--------5--|-----------------|-----------------|-----------------|
|---------5-----|-----------------|-4-4-4-4-4-4-4-4-|-5-5-5-5-5-5-5-5-|
|------7--------|-5-5-5-5-5-5-5-5-|-----------------|-----------------|
                                                      (videogame melody)

|-----------------|-----------------|-----------------|-----------------|
|-----------------|-----------------|-----------------|-----------------|
|-5-5-5-5-5-5-5-5-|-----------------|-----------------|-----------------|
|-----------------|-7-7-7-7-7-7-7-7-|-7-7-7-7-7-7-7-7-|-3-3-3-3-3-3-3-3-|


|-----------------|-----------------|-----------------|----------------|
|-----------------|-----------------|-----------------|----------------|
|-0-0-0-0-0-0-0-0-|-5-5-5-5-5-5-5-5-|-5-5-5-5-5-5-5-5-|-5--5-5-5-5-5-5-|
|-----------------|-----------------|-----------------|----------------|
                                              VERSE 2 'There's a great amount...'

|------------------|------------------|------------------|------------------|
|------------------|------------------|------------------|------------------|
|-(5)--5-5-5-5-5---|------------------|------------------|------------------|
|----------------7-|-(7)--7-7-7-7-7-7-|-(7)--7-7-7-7-7-3-|-(3)--3-3-3-3-3-3-|


|------------------|------------------|------------------|------------------|
|----------------2-|-(2)--2-2-2-2-2---|----------------0-|-(0)--0-0-0-0-0-0-|
|------------------|----------------0-|-(0)--0-0-0-0-0---|------------------|
|-(3)--3-3-3-3-3---|------------------|------------------|------------------|
                                             BRIDGE 2 'Find a man in a chair...'

|------------------|------------------|------------------|------------------|
|-(0)--0-0-0-0-0---|------------------|------------------|------------------|
|----------------2-|-(2)--2-2-2-2-2-2-|-(2)--2-2-2-2-2---|------------------|
|------------------|------------------|----------------3-|-(3)--3-3-3-3-3-3-|


|------------------|------------------|------------------|---------2-(2)--7---|
|----------------2-|-(2)--2-2-2-2-2-0-|-(0)--0-0-0-0-0-0-|-0--(0)-------------|
|------------------|------------------|------------------|--------------------|
|-(3)--3-3-3-3-3---|------------------|------------------|--------------------|
                                                           CHORUS 2 'The game is on...'

|-(7)----6--4--|-------------------|---------------|------|
|--------------|-5--(5)------------|---------------|------|
|--------------|-------------------|---------------|------|
|--------------|---------3-(3)--3--|-(3)----(3)----|-0----|


|---------------|----------------2--|-2--0--------|---------2-(2)--7--|
|---------------|-------------------|-------4--2--|-0--(0)------------|
|------5--4--2--|-0--(0)------------|-------------|-------------------|
|-(0)-----------|---------0-(0)-----|-------------|-------------------|


|-(7)--11--9--7--|-------------------|---------------|-------------------|
|----------------|---------9-(9)-----|---------------|----------------5--|
|----------------|----------------7--|-(7)--5--4--2--|---------5-(5)-----|
|----------------|-0--(0)------------|---------------|-3--(3)------------|


|---------------|-----------------|-----------------|-----------------|
|-(5)--------5--|-----------------|-----------------|-----------------|
|---------5-----|-----------------|-4-4-4-4-4-4-4-4-|-5-5-5-5-5-5-5-5-|
|------7--------|-5-5-5-5-5-5-5-5-|-----------------|-----------------|
                                                      (videogame melody)
[ Tab from: http://www.guitartabs.cc/tabs/h/helloween/game_is_btab.html ]
|-----------------|-----------------|-----------------|-----------------|
|-----------------|-----------------|-----------------|-----------------|
|-5-5-5-5-5-5-5-5-|-----------------|-----------------|-----------------|
|-----------------|-7-7-7-7-7-7-7-7-|-7-7-7-7-7-7-7-7-|-3-3-3-3-3-3-3-3-|


|-----------------|-----------------|-7--(7)--6-(6)-----|-----------|
|-----------------|-----------------|----------------7--|-----------|
|-0-0-0-0-0-0-0-0-|-5-5-5-5-5-5-5-5-|-------------------|-5--5------|
|-----------------|-----------------|-------------------|-----------|
                                                          GTR SOLO (2:17 to 3:14)

|---------|------------|---------|------------|
|---------|------------|---------|------------|
|---------|------------|---------|------------|
|---------|-3--3--3----|---------|-0--0--0----|


|---------|-------------|-------------|------|
|---------|-------------|-------------|------|
|---------|-0----(0)----|-4----(4)----|-5----|
|---------|-------------|-------------|------|


|---------------|----------|---------------|------|
|---------------|----------|---------------|------|
|-(5)----(5)----|----------|---------------|------|
|---------------|-3--------|-(3)----(3)----|-0----|


|---------------|-------------|-------------|-----------------|
|---------------|-------------|-------------|-----------------|
|---------------|-0----(0)----|-4----(4)----|-5-5-5-5-5-5-5-5-|
|-(0)----(0)----|-------------|-------------|-----------------|


|-----------------|-----------------|-----------------|-----------------|
|-----------------|-----------------|-----------------|-----------------|
|-5-5-5-5-5-5-5-5-|-----------------|-----------------|-----------------|
|-----------------|-3-3-3-3-3-3-3-3-|-3-3-3-3-3-3-3-3-|-0-0-0-0-0-0-0-0-|


|-----------------|-----------------|-------------------|-----------------|
|-----------------|-----------------|-------------------|-----------------|
|-----------------|-0-0-0-2-4-4-4-4-|-(4)-4-4-5-7-7-7-7-|-5-5-5-5-5-5-5-5-|
|-0-0-0-0-0-0-0-0-|-----------------|-------------------|-----------------|


|-----------------|-----------------|-----------------|-----------------|
|-----------------|-----------------|-----------------|-----------------|
|-5-5-5-5-5-5-5-5-|-----------------|-----------------|-----------------|
|-----------------|-3-3-3-3-3-3-3-3-|-3-3-3-3-3-3-3-3-|-0-0-0-0-0-0-0-0-|


|-----------------|-----------------|-------------------|----------------7---|
|-----------------|-----------------|-------------------|---------7-(7)------|
|-----------------|-0-0-0-2-4-4-4-4-|-(4)-4-4-5-7-7-7-7-|-5--(5)-------------|
|-0-0-0-0-0-0-0-0-|-----------------|-------------------|--------------------|


|-(7)--7--6--4--|-------------------|-------------------|-------------------|
|---------------|-5--(5)------------|-------------------|----------------2--|
|---------------|-------------------|-------------------|-------------------|
|---------------|---------3-(3)--3--|-(3)-3-3-3-3-3-3-3-|-0--(0)--0-(0)-----|


|---------------|-----------------|-2--0--------|---------2-(2)--7---|
|-(2)--0--------|-----------------|-------4--2--|-0--(0)-------------|
|---------4--2--|-0-0-0-0-0-0-0-0-|-------------|--------------------|
|---------------|-----------------|-------------|--------------------|


|-(7)--11--9--7--|-------------------|---------------|-------------------|
|----------------|-------------------|---------------|----------------5--|
|----------------|----------------7--|-(7)--5--4--2--|---------5-(5)-----|
|----------------|-0--(0)--0-(0)-----|---------------|-3--(3)------------|


|------9--7--6--|-----------------|-----------------|---------------|
|-(5)-----------|-7-7-7-7-7-7-7-7-|-----------------|---------------|
|---------------|-----------------|-----------------|---------------|
|---------------|-----------------|-9-9-9-9-9-9-9-9-|-10----(10)----|
                                                      CODA 'You have played...'

|---------|-------------|---------|-------------|
|---------|-------------|---------|-------------|
|---------|-------------|---------|-------------|
|---------|-7----(7)----|---------|-3----(3)----|


|---------|--------------|--------------|-----------------|
|---------|-2--2--(2)----|--------------|-0-0-0-0-0-0-0-0-|
|---------|--------------|-0--0--(0)----|-----------------|
|---------|--------------|--------------|-----------------|


|-----------------|-----------------|-----------------|-----------------|
|-0-0-0-0-0-0-0-0-|-----------------|-----------------|-----------------|
|-----------------|-2-2-2-2-2-2-2-2-|-2-2-2-2-2-2-2-2-|-----------------|
|-----------------|-----------------|-----------------|-3-3-3-3-3-3-3-3-|


|-----------------|-----------------|-----------------|----------------7---|
|-----------------|-----------------|-----------------|---------7-(7)------|
|-----------------|-----------------|-0-0-0-0-0-0-0-0-|-5--(5)-------------|
|-3-3-3-3-3-3-3-3-|-0-0-0-0-0-0-0-0-|-----------------|--------------------|
                                                        CHORUS 3 'The game is on...'

|-(7)----6--4--|-------------------|---------------|------|
|--------------|-5--(5)------------|---------------|------|
|--------------|-------------------|---------------|------|
|--------------|---------3-(3)--3--|-(3)----(3)----|-0----|


|---------------|----------------2--|-2--0--------|---------2-(2)--7--|
|---------------|-------------------|-------4--2--|-0--(0)------------|
|------5--4--2--|-0--(0)------------|-------------|-------------------|
|-(0)-----------|---------0-(0)-----|-------------|-------------------|


|-(7)--11--9--7--|-------------------|---------------|-------------------|
|----------------|---------9-(9)-----|---------------|----------------5--|
|----------------|----------------7--|-(7)--5--4--2--|---------5-(5)-----|
|----------------|-0--(0)------------|---------------|-3--(3)------------|


|---------------|-----------------|-----------------|----------------7---|
|-(5)--------5--|-----------------|-----------------|---------7-(7)------|
|---------5-----|-----------------|-4-4-4-4-4-4-4-4-|-5--(5)-------------|
|------7--------|-5-5-5-5-5-5-5-5-|-----------------|--------------------|
                                                      CHORUS 4 'The game is on...'

|-(7)----6--4--|-------------------|---------------|------|
|--------------|-5--(5)------------|---------------|------|
|--------------|-------------------|---------------|------|
|--------------|---------3-(3)--3--|-(3)----(3)----|-0----|


|---------------|----------------2--|-2--0--------|---------2-(2)--7--|
|---------------|-------------------|-------4--2--|-0--(0)------------|
|------5--4--2--|-0--(0)------------|-------------|-------------------|
|-(0)-----------|---------0-(0)-----|-------------|-------------------|


|-(7)--11--9--7--|-------------------|---------------|-------------------|
|----------------|---------9-(9)-----|---------------|----------------5--|
|----------------|----------------7--|-(7)--5--4--2--|---------5-(5)-----|
|----------------|-0--(0)------------|---------------|-3--(3)------------|


|---------------|-----------------|-----------------|-----------------|
|-(5)--------5--|-----------------|-----------------|-----------------|
|---------5-----|-----------------|-4-4-4-4-4-4-4-4-|-5-5-5-5-5-5-5-5-|
|------7--------|-5-5-5-5-5-5-5-5-|-----------------|-----------------|
                                                      (videogame melody)

|-----------------|-----------------|-----------------|-----------------|
|-----------------|-----------------|-----------------|-----------------|
|-5-5-5-5-5-5-5-5-|-----------------|-----------------|-----------------|
|-----------------|-7-7-7-7-7-7-7-7-|-7-7-7-7-7-7-7-7-|-3-3-3-3-3-3-3-3-|


|-----------------|-----------------|-----------------|-----------------|
|-----------------|-----------------|-----------------|-----------------|
|-0-0-0-0-0-0-0-0-|-5-5-5-5-5-5-5-5-|-5-5-5-5-5-5-5-5-|-----------------|
|-----------------|-----------------|-----------------|-7-7-7-7-7-7-7-7-|


|-----------------|-----------------|-----------------|-----------------|
|-----------------|-----------------|-----------------|-----------------|
|-----------------|-----------------|-0-0-0-0-0-0-0-0-|-5-5-5-5-5-5-5-5-|
|-7-7-7-7-7-7-7-7-|-3-3-3-3-3-3-3-3-|-----------------|-----------------|


|-----------------|-----------------|-----------------|-----------------|
|-----------------|-----------------|-----------------|-----------------|
|-5-5-5-5-5-5-5-5-|-----------------|-----------------|-----------------|
|-----------------|-7-7-7-7-7-7-7-7-|-7-7-7-7-7-7-7-7-|-3-3-3-3-3-3-3-3-|


|-----------------|----------*|
|-----------------|----------*|
|-0-0-0-0-0-0-0-0-|-5--------*|
|-----------------|----------*|

end.
Comments