Hellogoodbye - Shimmy Shimmy Quarter Turn Chords & Tabs

 

Shimmy Shimmy Quarter Turn Chords & Tabs

Hellogoodbye Chords & Tabs

Version: 2 Type: Bass Tab

Shimmy Shimmy Quarter Turn Bass Tab

get ready to dance this one up :)

Intro x2
G|-----------------------------------------------------------------|
D|-----------------------------------------------------------------|
A|---------4-4-----------------------------------------------------|
E|-0-0------------4-4---5-5----------------------------------------|

Then this x2
G|-----------------------------------------------------------------|
D|-----------------------------------------------------------------|
A|--------44444444-------------------------------------------------|
E|-0000000--------44444444-5-5-5-5---------------------------------|

Verse x2 (The wilted flowers that I gave…)
G|-----------------------------------------------------------------|
D|-2-22-2-2---/11-11--11-11--6-66-6-6--7-7-7-7---------------------|
A|-----------------------------------------------------------------|
E|-----------------------------------------------------------------|

Then this again x2
G|-----------------------------------------------------------------|
D|-----------------------------------------------------------------|
A|--------44444444-------------------------------------------------|
E|-0000000--------44444444-5-5-5-5---------------------------------|

Verse x2 (Oh oh, I’m serious as a heart attack…)
G|-----------------------------------------------------------------|
D|-2-22-2-2---/11-11--11-11--6-66-6-6--7-7-7-7---------------------|
A|-----------------------------------------------------------------|
E|-----------------------------------------------------------------|

Awesome part x1 
G|-----------------------------------------------------------------|
D|-----------------------------------------------------------------|
A|-4442------------------------------------------------------------|
E|------0000-2224-55-----------------------------------------------|

G|-----------------------------------------------------------------|
D|-----------------------------------------------------------------|
A|-4442------------------------------------------------------------|
E|------0000-2224-55-----------------------------------------------|

G|-----------------------------------------------------------------|
D|-----------------------------------------------------------------|
A|-4442------------------------------------------------------------|
E|------0000-2224-5-5----------------------------------------------|

G|-----------------------------------------------------------------|
D|-----------------------------------------------------------------|
A|-4442------------------------------------------------------------|
E|------0000-5555-5555—0~------------------------------------------|




Chorus x1 (Gotta get it back to…)
G|-----------------------------------------------------------------|
D|----------------------------------2------------------------------|
A|-------------------44444444-2-2-24-------------------------------|
E|-00000000-55555555-----------------------------------------------|
[ Tab from: http://www.guitartabs.cc/tabs/h/hellogoodbye/shimmy_shimmy_quarter_turn_btab_ver_2.html ]
G|-----------------------------------------------------------------|
D|----------------------------------2------------------------------|
A|-------------------44444444-2-2-24-------------------------------|
E|-00000000-55555555------------------0~---------------------------|

Pause

I swear that I’m not kidding
We’re just trying to fit in
With all the other answers
To questions never confirmed
States the keep us far apart
Turn down the beating of my heart
Mark the places in my book
With photographs we never took

(Guitar comes in here)

I swear that I’m not kidding
Night time is so pretty
All the stars above your eyes
I’m sneaking out and making ties

(States that keep us far apart…)
G|-----------------------------------------------------------------|
D|-----------------------------------------------------------------|
A|-777777777-99999999-1111111111111111-1212121212121212------------|
E|-----------------------------------------------------------------|

Pause again


Awesome part again x1 
G|-----------------------------------------------------------------|
D|-----------------------------------------------------------------|
A|-4442------------------------------------------------------------|
E|------0000-2224-55-----------------------------------------------|

G|-----------------------------------------------------------------|
D|-----------------------------------------------------------------|
A|-4442------------------------------------------------------------|
E|------0000-2224-5-5----------------------------------------------|

G|-----------------------------------------------------------------|
D|-----------------------------------------------------------------|
A|-4442------------------------------------------------------------|
E|------0000-5555-5555—0~------------------------------------------|




This part x1 (Gotta get it back to…)
G|-----------------------------------------------------------------|
D|----------------------------------2------------------------------|
A|-------------------44444444-2-2-24-------------------------------|
E|-0--------5----555-----------------------------------------------|

Chorus x2 
G|-----------------------------------------------------------------|
D|----------------------------------2------------------------------|
A|-------------------44444444-2-2-24-------------------------------|
E|-00000000-55555555-----------------------------------------------|

G|-----------------------------------------------------------------|
D|----------------------------------2------------------------------|
A|-------------------44444444-2-2-24-4-----------------------------|
E|-00000000-55555555-----------------------------------------------|

G|-----------------------------------------------------------------|
D|-----------------------------------------------------------------|
A|-----------------------------------------------------------------|
E|-0~-----00-0-0-00-0x---------------------------------------------|