Hellogoodbye - Dear Jamiesincerely Me Chords & Tabs

 

Dear Jamiesincerely Me Chords & Tabs

Hellogoodbye Chords & Tabs

Version: 1 Type: Tab

Dear Jamiesincerely Me Tab

xGreenTHix

Dear Jamie... sincerely me, is a good hellogoodbye song
haha i first learned this on the viola, piano and now on the guitar
its really easy
this is the piano part transfered into GUITAR


one strum for the two notes- but listen to the song while playing
keep repeating this
e---------------------------------------------------------------------------|
b---8--10---8-----8--10--8--------------------------------------------------|
g---------------------------------------------------------------------------|
d---------------------------------------------------------------------------|
a---------------------------------------------------------------------------|
D---------------------------------------------------------------------------|

Again.. this is the piano part-still sweet ><
[ Tab from: http://www.guitartabs.cc/tabs/h/hellogoodbye/dear_jamiesincerely_me_tab.html ]
untill.... this is the part that people will know -
   Dear    Jamie           I have a letter i would like to send
e---10--9----------------------------------------------------|
b-------------10------------10-10--8-7-8--7--10-----7--------|
g-----------------------------------------------9-------7----|
d------------------------------------------------------------|
a------------------------------------------------------------|
D------------------------------------------------------------|
continue..

its lacking string of vows of punctuation at the end
e---10--9--------------------------------------------------|
b----------10-10-10---10-12-10--8-7-10-------7-------------|
g----------------------------------------9-------7---------|
d----------------------------------------------------------|
a----------------------------------------------------------|
E----------------------------------------------------------|

eh, its my first tab and im like 13
chillax on the ratings pally