Hellogoodbye - Bonnie Taylor Shakedown Chords & Tabs

 

Bonnie Taylor Shakedown Chords & Tabs

Hellogoodbye Chords & Tabs

Version: 1 Type: Tab 0 ratings
1 star 2 stars 3 stars 4 stars 5 stars
comments

Bonnie Taylor Shakedown Tab

Artist: Hellogoodbye
Track: Bonnie Taylor Shakedown... 2K1
Album: Hellogoodbye

Intro/Verse:

E -----------------------------|
B -----------------------------|
G ---------7-7--9-9-9--5-5-----|
D --5-5-5--7-7--9-9-9--5-5-----|
A --5-5-5--5-5--7-7-7--3-3-----|
E --3-3-3----------------------|


Chorus:
[ Tab from: http://www.guitartabs.cc/tabs/h/hellogoodbye/bonnie_taylor_shakedown_tab.html ]
E --------------------------------|
B --------------------------------|
G ---------5-5-5--7-7-7--5-5-5----|
D --5-5-5--5-5-5--7-7-7--5-5-5----|
A --5-5-5--3-3-3--5-5-5--3-3-3----|
E --3-3-3-------------------------|


Break:

E ---------------------------------------|
B ---------------------------------------|
G --5-5-5-5--5-5-5-5--7-7-7-7------------|
D --5-5-5-5--5-5-5-5--7-7-7-7--5-5-5-5---|
A --3-3-3-3--3-3-3-3--5-5-5-5--5-5-5-5---|
E -----------------------------3-3-3-3---|

The pre-chorus is played on bass and there are quite a few synth pieces in the song but 
is pretty much correct!
Comments