Hellacopters - Random Riot Chords & Tabs

 

Random Riot Chords & Tabs

Hellacopters Chords & Tabs

Version: 1 Type: Bass Tab 0 ratings
1 star 2 stars 3 stars 4 stars 5 stars
comments

Random Riot Bass Tab

   
Artist: The Hellacopters
Song: Random Riot
Album: Super Shitty To The Max (1996)
Tabs: Lee Tucker

   ´ I love the copters and lissten to them much, here is one of my
     favourite song, Random Riot. This one is easy to play but it´s
     a cool song so play it !!!
                                    GOOD LUCK!

Verse:
|------------------|-------------------|----------------------|-------------------|
|------------------|-------------------|----------------------|-------------------|
|------------------|-------------------|----------------------|-------------------|
|--5-5-5-5-------|--3-3-3-3-------|--0-0-0-0----1-1---|--3-3-3----------| (4t)


|------------------|-------------------|----------------------|-------------------|
|------------------|-------------------|----------------------|-------------------|
|--5-5-5-5-5-5-|5-5--7-7-7-7-7-|7-7--3--5-5-5-5-5-|-5-5-5-----------|
|------------------|-------------------|----------------------|-------------------|
[ Ending....]

|------------------|-------------------|
|------------------|-------------------|
|-7--7--7--7--7-|-7----------------|
|------------------|-------------------|
[ Tab from: http://www.guitartabs.cc/tabs/h/hellacopters/random_riot_btab.html ]
Refr:
                Random Riot....
|------------------|-------------------|----------------------|-------------------|  
|------------------|-------------------|----------------------|-------------------| 
|------------------|--0-0-0-0--------|----------------------|--0-0-0-0-------|   
|--1-- 3--3--- ---|-------------------|--1--3--3-----------|-------------------|
[ First round you play the refr 3 times and the secound 7 times]
                             
|------------------|--------------------|----------------------|
|------------------|--------------------|----------------------|
|------------------|--6---0-0-0-0-0-|-0-0-----------------|
|--1--3--3-------|--------------------|----------------------|
[ You ending the refr with this one ]

                                           Chords: 
                             A G E F G (x4) D E C D E
                                       - bass solo -
                             A G E F G (x4) D E C D E
                                    F G A (x3) F G D
                             A G E F G (x4) D E C D E
                                    F G A (x7) F G D A
Comments