Hellacopters - No Song Unheard Solo Chords & Tabs

 

No Song Unheard Solo Chords & Tabs

Hellacopters Chords & Tabs

Version: 1 Type: Tab 0 ratings
1 star 2 stars 3 stars 4 stars 5 stars
comments

No Song Unheard Solo Tab

 

 cool, not hard. enjoy/ fellan

[ Tab from: http://www.guitartabs.cc/tabs/h/hellacopters/no_song_unheard_solo_tab.html ]
  
 chords played during the solo: Cm G# A#
e--------------------------------------------------------------------
b13-11-13-13~--13-11-11-11-------------------------------------------
g--------------------------12-10------------8----10-8-10-12-10-8-----
d--------------------------------13-10-8h10---10-----------------10-8
a--------------------------------------------------------------------
e--------------------------------------------------------------------

e--------------------------------------------------------------------
b--------------------------------------------------------------------
g----8h----8h----8----8-10-8-10-12-10-8---------8h10-8----8----8-10--
d-10----10----10---10-------------------10-8-10--------10---10-------
a--------------------------------------------------------------------
e--------------------------------------------------------------------
Comments