Hellacopters - Hopeless Case Of A Kid In Denial Chords & Tabs

 

Hopeless Case Of A Kid In Denial Chords & Tabs

Hellacopters Chords & Tabs

Version: 1 Type: Tab 0 ratings
1 star 2 stars 3 stars 4 stars 5 stars
comments

Hopeless Case Of A Kid In Denial Tab

Artist: Hellacopters
Song: Hopless case of a kid in denial

The hellacopters solo

b = quick bend
hb = half bend
fb = full bend
/ = slide up
\ = slide down
h = hammer on
p = pull of
~ = vibrato

 Sence i couldn't find the solo i might as well figure it out by myself.. so here it is folks.
It's not 100% correct, but here's the "overview"

Solo
e|-----------------------------------------|
b|------14---------------------------------|
g|-11b-hold-13-11----11----11--------------|
d|-----------------14----14----h14p11--14~-|
a|-----------------------------------------|
E|-----------------------------------------|

e|--------------------------------|
b|---------------------12--12-12b-|
g|--------------11h13----13-------|
d|-11----11--14-------------------|
a|----14--------------------------|
E|--------------------------------|

e|---------------------------------------------------|
b|------12p9-----12p9----12p9---------------------9--|
g|-/13-------13------13------13--13b13b13b--/9-12----|
d|---------------------------------------------------|
a|---------------------------------------------------|
E|---------------------------------------------------|
[ Tab from: http://www.guitartabs.cc/tabs/h/hellacopters/hopeless_case_of_a_kid_in_denial_tab.html ]
e|-12p9-------12p9-------12p9-------12p9--------|
b|-------12p9-------12p9-------12p9-------12----|
g|----------------------------------------------|
d|----------------------------------------------|
a|----------------------------------------------|
E|----------------------------------------------|
                           hold
e|12/14-15b--p12-------|    e|-15b-15b\12-----12----12-14-16----|
b|---------------14-14~|    g|-------------14----14----------17-|
g|---------------------|    b|----------------------------------|
d|---------------------|    d|----------------------------------|
a|---------------------|    a|----------------------------------|
E|---------------------|    E|----------------------------------|

e|-/18fb-16-15--------------------------------|
b|---x---------19-17h19p17-----------17fb-----|
g|---x----------------------18-16-18------18~-|
d|--------------------------------------------|
a|--------------------------------------------|
E|--------------------------------------------|

e|--------------------------------------------|
b|-17hb---------------------------------------|
g|--x----18hb-16------------------------------|
d|--x------------18p16p14-16-18-16bbbb-14-----|
a|----------------------------------------16~-|
E|--------------------------------------------|

Made by: Monta   questions: lillmonta@hotmail.com
Comments