Hellacopters - By The Grace Of God Chords & Tabs

 

By The Grace Of God Chords & Tabs

Hellacopters Chords & Tabs

Version: 2 Type: Tab 0 ratings
1 star 2 stars 3 stars 4 stars 5 stars
comments

By The Grace Of God Tab

Hellacopters - By the grace of god

Tabbed by Andreas Borg
[ Tab from: http://www.guitartabs.cc/tabs/h/hellacopters/by_the_grace_of_god_tab_ver_2.html ]
This is just the intro but anyway. 
The intro is the cool part...
e|----7---11--9---------7---------|
b|-/9---9-------9--5------9--5----|
g|-----------------------------6--|
d|--------------------------------|
a|--------------------------------|
E|--------------------------------|

e|----7---11--9---------7---------|
b|-/9---9-------9--5------9--5----|
g|-----------------------------6--|
d|--------------------------------|
a|--------------------------------|
E|--------------------------------|
Comments