Hellacopters - By The Grace Of God Chords & Tabs

 

By The Grace Of God Chords & Tabs

Hellacopters Chords & Tabs

Version: 1 Type: Tab 0 ratings
1 star 2 stars 3 stars 4 stars 5 stars
comments

By The Grace Of God Tab

   
Song: By the Grace of God
Artist: The Hellacopters
Album: By the Grace of God

Standard tuning

Cords
G# 	466xxx
E(VII)	x755xx
C#	x466xx
E	022xxx

Intro / Chorus
   G#	       E(VII)       C#	           E
(Riff 1)  
e|--------12p11-------------------------12p11-----------------
B|----12-------12-------------------12-------12---------------
G|-/13--13-----------------------/13--13---------------------- 
D|-----------------11b14r11p9--------------------11b14r11p9---
A|---------------------------11----------------------------11-
E|------------------------------------------------------------

Vers/Chorus
       G#	 E(VII)   C#	      E
e|----------------------------------
B|----------------------------------
G|--------------9-------6-----------
D|------6-------9-------6-------2---
A|------6-------7-------4-------2---
E|------4-----------------------0---

PRE Chorus - Cord change tempo twise the verse during Riff 1
   G#  E5  C#   E
e|------------------
B|------------------
G|------9---6-------
D|--6---9---6---2---
A|--6---7---4---2---
E|--4-----------0---


SOLO
   G#	      E(VII)	       C#	           E
e|--------12p11-----------------------14------------------------
B|----12-------12---------------14b16---16r14-12-14b16r14-12----
G|-/13--13---------------------------------------------------13-
D|----------------11b14r11p9------------------------------------
A|---------------------------11---------------------------------
E|--------------------------------------------------------------
[ Tab from: http://www.guitartabs.cc/tabs/h/hellacopters/by_the_grace_of_god_tab.html ]
   G#	      E(VII)	       C#	                  E
e|--------12p11-----------------16b-16b-16b-16b-16b-16b--------
B|----12-------12----------------------------------------------
G|-/13--13----------------------------------------------13-----
D|----------------11b14r11p9-----------------------------------
A|---------------------------11--------------------------------
E|-------------------------------------------------------------

   G#       E(VII)	 	 C#	 	E
e|-----------------------------------------------------------------------
B|------------------------------------------14b16r14-12----------12------
G|-11h13----13p11---------------------11-13-------------13-11-13----13---
D|-----------------13p11--------11h13------------------------------------
A|-----------------------14-11-------------------------------------------
E|-----------------------------------------------------------------------

 	    G#	         E(VII)      C#	  
e|-------14-11-------------------------------14b16-14b16-14b16r14-
B|----12-------14-12---14p12--12-14b-14b-14b----------------------
G|-13----------------13-----13------------------------------------
D|----------------------------------------------------------------
A|----------------------------------------------------------------
E|----------------------------------------------------------------

    E
e|-19b21-19b21-19b21-19b21r19------------
B|---------------------------19-14-12----
G|------------------------------------13-
D|---------------------------------------
A|---------------------------------------
E|---------------------------------------


My e-mail: sindrismari@hotmail.com

-Sindre.
Comments