Hella - Republic Of Rough N Ready Chords & Tabs

 

Republic Of Rough N Ready Chords & Tabs

Hella Chords & Tabs

Version: 1 Type: Tab 0 ratings
1 star 2 stars 3 stars 4 stars 5 stars
comments

Republic Of Rough N Ready Tab

   
Republic of Rough And Ready
by Spencer Seim and Zach Hill
tab by JA


Tuning Alert!
low to high: GADGBE
Tune your low E up a step and a half (3 frets).


"A"
e--------------------------------------------------------|
b--------------------------------------------------------|
g--------------------------------7--7-------11b      r11-|
d-------0--0--------7--7---------------0-0---------------|
a----h5-5--5-----h5-5--5------h5-5--5--5-5--9---------9--|
G-0h4---------0h4---------0h4----------4-4--0---------0--|
                                   p.m.^ ^


"B"
e-----------------------------------------------------------|
b-----------------------------------------------------------|
g-11b      r11-11-11-11-11-11-11-11-11-11-11-11-11-11-11-11-|
d-----------------------------------------------------------|
a-9---------9--9--9--9--9--9--9--9--9--9--9--9--9--9--9--9--|
G-0---------0-----0-----12----12----11----11----10----10----|

[ Tab from: http://www.guitartabs.cc/tabs/h/hella/republic_of_rough_n_ready_tab.html ]
"C"
e-----------------------------------------------------------------------------------------------|
b-----------------------------------------------------------------------------------------------|
g-----------------------------------------------------------------------------------------------|
d-9-9-9-9-9-9-9-9-9-9-9-9-----------8-8-8-----------8-8-8---7-------------8-8-8-----------8-8-8-|
a-7-7-7-7-7-7-7-7-7-7-7-7-----------------------------------7-----------------------------------|
G-0-0-0-0-0-0-0-0-0-0-0-0-0-12p11p0-------0-12p11p0-------------0-12p11p0-------0-12p11p0-------|


"D"
e--------------------------------------------------------------------|
b--------------------------------------------------------------------|
g--------------------------------------------------------------------|
d------------------------------16---14-------------------------------|
a---------------14-----------------------16-----------------------17-|
G-0h4h50h4h50h4h50h4h50h4h50h4h50h4h50h4h50h4h50h4h50h4h50h4h50h4h5--|

"E"
e----------------------------------------------------------------|
b----------------------------------------------------------------|
g----------------------------------------------------------------|
d---5-------7/9----5-------7/9---------14----12-10-10-10-10---9--|
a-----------------------------------10----11----10-10-10-10---10-|
G-5---0-0-5-5/7--5---0-0-5-5/7--0---------------0--0--0--0----0--|

"F"
e----------------------------------------------|
b----0----------0------10h12----12----12----12-|
g------0----------0-10-------10----10----10----|
d-12------12/15--------0-----------------------|
a----------------------------------------------|
G-0--------------------------------------------|
  Allow open low G and D strings to ring.


b = bend (in this song only 1/2 step bends are used)
h = hammer on
p = pull off
/ = slide up
\ = slide down
p.m. = palm mute
Comments