Hella - 1-800-ghost-dance Chords & Tabs

 

1-800-ghost-dance Chords & Tabs

Hella Chords & Tabs

Version: 1 Type: Tab 0 ratings
1 star 2 stars 3 stars 4 stars 5 stars
comments

1-800-ghost-dance Tab

   
1-800-GHOST-DANCE
by Seim and Hill
tab in progress by JA


  Riff A following bass drum intro

e-10h13p10--------10-------------10h14p10-------14--------------|
b-0------0-0-0-0--0-----0-0-0-0--0------0-0-0-0--0------0-0-0-0-|

e-10h13p10--------10-------------10h14p10-------10h14p10---|
b-0------0-0-0-0--0-----0-0-0-0--0------0-0-0-0--0-0-0-0-0-|
  let all notes ring


  Riff B
e--------------------------------|
b-21----21----21----21----22--22-|
g-20----20----20----20----21--21-|
d-19----19----19----19----20--20-|
a--------------------------------|
  These chords may be wrong.


  Riff C
e-------------------------------------------7-----|
b---------------------------------------7---------|
g-------------------------------4---7-------------|
d---------------------------5---------------------|
a-------------------------------------------------|
E-0-0-3-0-0-3-0-0-3-0-0-3---3-3-3-3-3-3-3-3-3-3-3-|
   Jam on low E with pick, tap all other notes with fretting hand


  Riff D
[ Tab from: http://www.guitartabs.cc/tabs/h/hella/1_800_ghost_dance_tab.html ]
e---------------------------------|
b---------------------------------|
g-------------------------------7-|
d---------------------------7-----|
a---------------------------------|
E-0-0-5-0-0-5-0-0-5-0-0-5---5-5-5-|
   As above


  Riff E

e-------------------------------------|
b-----------------------------------7-|
g-------------------------------7-----|
d---------------------------9---------|
a-------------------------------------|
E-0-0-7-0-0-7-0-0-7-0-0-7---7-7-7-7-7-|

e-----------------------------------------|
b-----------------------------------7-----|
g-------------------------------7-------7-|
d---------------------------9-------------|
a-----------------------------------------|
E-0-0-7-0-0-7-0-0-7-0-0-7---7-7-7-7-7-7-7-|
   As above

  After this are the superquick tap runs and dischords, then the
trem-picked open-string/fretted string craziness, back into Riffs C-E,
then play the intro palmmuted, then the intro as before, and end.
  If anyone else has the rest of the tune, please post. - JA
Comments