Hell Is For Heroes - You Drove Me To It Chords & Tabs

 

You Drove Me To It Chords & Tabs

Hell Is For Heroes Chords & Tabs

Version: 6 Type: Tab 0 ratings
1 star 2 stars 3 stars 4 stars 5 stars
comments

You Drove Me To It Tab

   
Hell is for Heroes - You Drove Me To It
Tabbed by Iain Reilly

Guitar 1: Will
Guitar 2: Tom

[] = Natural Harmonic

Note: This is the new Single version of 'You Drove Me To It', not the old promo version.

Intro (Guitar 1) x2
E|---------------------------------|
B|---------------------------------|
G|---------------------------------|
D|-0----------------------------10-|
A|-0-9h10-----9h10-----9h10-----10-|
D|-0------0-0------0-0------0-0-10-|
PM        ...      ...      ...

Fill 1 (Guitar 1) x1
E|----------|
B|----------|
G|----------|
D|-0------0-|
A|-0-9h10-0-|
D|-0------0-|

Verse Verse Part 1 (Guitar 1) x2
E|---------------------------------|
B|---------------------------------|
G|---------------------------------|
D|-0----------------------------10-|
A|-0-9h10-----9h10-----9h10-----10-|
D|-0------0-0------0-0------0-0-10-|
PM        ...      ...      ...

Verse Part 1 (Guitar 2) x2
E|-----------------------------|
B|-----------------------------|
G|---------------------------5-|
D|-0-4h5-----4h5-----4h5-----5-|
A|-0-------------------------3-|
D|-0-----0-0-----0-0-----0-0---|
PM       ...     ...     ...

Verse Part 2 (Both Guitars) x2
E|-----------------------------------------|
B|-----------------------------------------|
G|-----------------------------------------|
D|-5-5---------5-5-------------------------|
A|-5-5---------5-5-------------------------|
D|-5-5-[5]-[5]-5-5-[5]-[5]-[5]-[5]-[5]-[5]-|

Verse Part 1 x4
Verse Part 2 x2
Verse Part 1 x2
Verse Part 2 x2
Verse Part 1 x2

Chorus (Both Guitars) x2
E|----------------------------------------------------|
B|----------------------------------------------------|
G|----------------------------------------------------|
D|-0-0--0-0---0-9-9-9-9-7-7--5-5--5-5---5-7-7-7-7-5-5-|
A|-0-0--0-0---0-9-9-9-9-7-7--5-5--5-5---5-7-7-7-7-5-5-|
D|-0-0--0-0---0-9-9-9-9-7-7--5-5--5-5---5-7-7-7-7-5-5-|

Verse Part 1 x2

Fill 2 x
E|-----------------------------|
B|-----------------------------|
G|-----------------------------|
D|-0------0-----------------10-|
A|-0-9h10-0--------9h10-----10-|
D|-0------0----0-0------0-0-10-|
PM             ...      ...

Verse Part 1 x1
Verse Part 2 x2
Verse Part 1 x2
Chorus x4

Interlude (Guitar 1) x3
E|------------------------------------------------------|
B|------------------------------------------------------|
G|------------------------------------------------------|
D|-10--10-8\\-10-10--10-8\\-10-10--10-8\\-8-7-7-7-5-5-5-|
A|-10--10-8\\-10-10--10-8\\-10-10--10-8\\-8-7-7-7-5-5-5-|
D|-10--10-8\\-10-10--10-8\\-10-10--10-8\\-8-7-7-7-5-5-5-|

Interlude (Guitar 2) x2
E|----------------------------------------------|
B|----------------------------------------------|
G|-5--5-----5-5--5-----5-5--5-------------------|
D|-5--5-8\\-5-5--5-8\\-5-5--5-8\\-8-7-7-7-5-5-5-|
A|-3--3-8\\-3-3--3-8\\-3-3--3-8\\-8-7-7-7-5-5-5-|
D|------8\\--------8\\--------8\\-8-7-7-7-5-5-5-|

Interlude Part 2 (Guitar 2) x2
E|---------------------------------|
B|---------------------------------|
G|-9-9-9-9-9-9-9-9-9-9-9-9-9-9-9-9-|
D|-x-x-x-x-x-x-x-x-x-x-x-x-x-x-x-x-|
A|-7-7-7-7-7-7-7-7-7-7-7-7-7-7-7-7-|
D|---------------------------------|
* Guitar 2 plays this over guitar one, playing the Interlude for the third time.
[ Tab from: http://www.guitartabs.cc/tabs/h/hell_is_for_heroes/you_drove_me_to_it_tab_ver_6.html ]
Interlude Part 2 (Guitar 1) x2
E|----------------------------------|
B|----------------------------------|
G|----------------------------------|
D|-0--0----0--0----0--0----0--0--10-|
A|-0--0----0--0----0--0----0--0--10-|
D|-0--0----0--0----0--0----0--0--10-|

Interlude Part 2 (Guitar 2) x2
E|---------------------------------|
B|---------------------------------|
G|-------------------------------5-|
D|-0--0----0--0----0--0----0--0--5-|
A|-0--0----0--0----0--0----0--0--3-|
D|-0--0----0--0----0--0----0--0----|

* Guitar 2 carries on three more times while guitar 1 does the verse riff three times.

Fill (Both Guitars) x1
E|-------------------------|
B|-------------------------|
G|-------------------------|
D|-7-7-7-7-7-7-7-7-7-7-7-7-|
A|-7-7-7-7-7-7-7-7-7-7-7-7-|
D|-7-7-7-7-7-7-7-7-7-7-7-7-|
PM .......................

Chorus (Guitar 1) x6

* Guitar 2 does the following over Guitar 1.

Final Chorus Part 1 (Guitar 2) x2
E|-----------------------------------------------------------------|
B|-----------------------------------------------------------------|
G|-7-7-7-7-7-7-7-7-7-7-7-7-7-7-7-7-7-7-7-7-7-7-7-7-6-6-6-6-6-6-6-6-|
D|-x-x-x-x-x-x-x-x-x-x-x-x-x-x-x-x-x-x-x-x-x-x-x-x-x-x-x-x-x-x-x-x-|
A|-5-5-5-5-5-5-5-5-5-5-5-5-5-5-5-5-5-5-5-5-5-5-5-5-4-4-4-4-4-4-4-4-|
D|-----------------------------------------------------------------|

Final Chorus Part 2 (Guitar 2) x1
E|-----------------------------------------------------------------|
B|-----------------------------------------------------------------|
G|-7-7-7-7-7-7-7-7-7-7-7-7-7-7-7-7-7-7-7-7-7-7-7-7-9-9-9-9-9-9-9-9-|
D|-x-x-x-x-x-x-x-x-x-x-x-x-x-x-x-x-x-x-x-x-x-x-x-x-x-x-x-x-x-x-x-x-|
A|-5-5-5-5-5-5-5-5-5-5-5-5-5-5-5-5-5-5-5-5-5-5-5-5-7-7-7-7-7-7-7-7-|
D|-----------------------------------------------------------------|

Final Chorus Part 3 (Guitar 2) x2
E|-------------------------------------------------|
B|-------------------------------------------------|
G|-11-11-11-11-11-11-11-11-11-11-11-11-11-11-11-11-|
D|--x--x--x--x--x--x--x--x--x--x--x--x--x--x--x--x-|
A|--9--9--9--9--9--9--9--9--9--9--9--9--9--9--9--9-|
D|-------------------------------------------------|

E|-------------------------------------------------|
B|-------------------------------------------------|
G|-11-11-11-11-11-11-11-11-12-12-12-12-12-12-12-12-|
D|--x--x--x--x--x--x--x--x--x--x--x--x--x--x--x--x-|
A|--9--9--9--9--9--9--9--9-10-10-10-10-10-10-10-10-|
D|-------------------------------------------------|

Final Chorus Part 4 (Guitar 2) x
E|-------------------------------------------------|
B|-------------------------------------------------|
G|-11-11-11-11-11-11-11-11-11-11-11-11-11-11-11-11-|
D|--x--x--x--x--x--x--x--x--x--x--x--x--x--x--x--x-|
A|--9--9--9--9--9--9--9--9--9--9--9--9--9--9--9--9-|
D|-------------------------------------------------|

E|-------------------------------------------------|
B|-------------------------------------------------|
G|-11-11-11-11-11-11-11-11-12-12-12-12-12-12-12-14-|
D|--x--x--x--x--x--x--x--x--x--x--x--x--x--x--x--x-|
A|--9--9--9--9--9--9--9--9-10-10-10-10-10-10-10-12-|
D|-------------------------------------------------|

Comments/Rants/Corrections: Obscure_Divine_Manifestation@hotmail.com
Comments