Hell Is For Heroes - You Drove Me To It Chords & Tabs

 

You Drove Me To It Chords & Tabs

Hell Is For Heroes Chords & Tabs

Version: 5 Type: Tab 0 ratings
1 star 2 stars 3 stars 4 stars 5 stars
comments

You Drove Me To It Tab

Here you go captains this song is narley so i tabbed it!

drop D tuning

INTRO & VERSE

e----------------------------------------
b----------------------------------------
g----------------------------------------
d----------------------------------------
a-0-9-10---0-0-9-10---0-0-9-10---0-0-5---
d----------------------------------------

CHORUS
[ Tab from: http://www.guitartabs.cc/tabs/h/hell_is_for_heroes/you_drove_me_to_it_tab_ver_5.html ]
e------------------------------------------------
b------------------------------------------------
g------------------------------------------------
d-0-0-0--0--9-9-9-9-9--7--5-5--5--5-5-5-5-7--7---
a-0-0-0--0--9-9-9-9-9--7--5-5--5--5-5-5-5-7--7---
d-0-0-0--0--9-9-9-9-9--7--5-5--5--5-5-5-5-7--7---

BRIDGE (play 2 times)

e--------------------------------------
b--------------------------------------
g--------------------------------------
d-10-10/7--10-10/7--10-10/7--7/5-5-5---
a-10-10/7--10-10/7--10-10/7--7/5-5-5---
d-10-10/7--10-10/7--10-10/7--7/5-5-5---

BRIDGE 2 (play 2 times then verse joins in with it)

e--------------
b--------------
g--------------
d-0-0-0-0-10---
a-0-0-0-0-10---
d-0-0-0-0-10---

PRE-CHORUS (after bridge 2)

e-----------------
b-----------------
g-----------------
d-x-x-x-x-x-x-x---
a-x-x-x-x-x-x-x---
d-x-x-x-x-x-x-x---

TABBED BY THE PORN MASTER
Comments