Hell Is For Heroes - You Drove Me To It Chords & Tabs

 

You Drove Me To It Chords & Tabs

Hell Is For Heroes Chords & Tabs

Version: 4 Type: Tab 0 ratings
1 star 2 stars 3 stars 4 stars 5 stars
comments

You Drove Me To It Tab

There ya go, i think its all correct
but its my first tab so go easy on me. corrections are welcome

This song is in drop d

INTRO AND VERSE

-xx------xx------xx------xx-10-12-|-xx------xx------xx------10-55-55-55-55--
-xx-9/10-xx-9/10-xx-9/10-xx-10-12-|-xx-9/10-xx-9/10-xx-9/10-10-55-55-55-55--
-xx------xx------xx------xx-10-12-|-xx------xx------xx------10-55-55-55-55--
----------------------------------|-----------------------------------------
----------------------------------|-----------------------------------------
----------------------------------|-----------------------------------------

CHORUS
[ Tab from: http://www.guitartabs.cc/tabs/h/hell_is_for_heroes/you_drove_me_to_it_tab_ver_4.html ]
-000-0-99999-7-55-5-5555/7-7----------
-000-0-99999-7-55-5-5555/7-7----------
-000-0-99999-7-55-5-5555/7-7----------
--------------------------------------
--------------------------------------
--------------------------------------

BRIDGE

-10-10-7/-1010-10-7/-1010-10-7/-77-555555-
-10-10-7/-1010-10-7/-1010-10-7/-77-555555-
-10-10-7/-1010-10-7/-1010-10-7/-77-555555-
------------------------------------------
------------------------------------------
------------------------------------------

BRIDGE 2 - (after 2 times the verse plays in background)

-0-00-00-00-10----------------------------
-0-00-00-00-10----------------------------
-0-00-00-00-10----------------------------
------------------------------------------
------------------------------------------
------------------------------------------

PRE CHORUS after bridge 2

--xxxxxxxx--
--xxxxxxxx--
--xxxxxxxx--
------------
------------
------------

TAB BY FABRIZIO MORETTI
Comments