Hell Is For Heroes - Transmit Disrupt Chords & Tabs

 

Transmit Disrupt Chords & Tabs

Hell Is For Heroes Chords & Tabs

Version: 1 Type: Tab 0 ratings
1 star 2 stars 3 stars 4 stars 5 stars
comments

Transmit Disrupt Tab

e|----------------------------------------|
b|----------------------------------------|
g|----------------------------------------|
d|--6-6-6-7-7-7-9-9-9-11-11-11------------| X2
a|--0-0-0-0-0-0-0-0-0-0---0---0-----------|
d|----------------------------------------|
[ Tab from: http://www.guitartabs.cc/tabs/h/hell_is_for_heroes/transmit_disrupt_tab.html ]
second time play this after it
e|----------------------------------------|
b|----------------------------------------|
g|----------------------------------------|
d|--14---X6---11---X6---------------------|
a|--0-----------0-------------------------|
d|----------------------------------------|

Hard part in the end
e|----------------------------------------|
b|----------------------------------------|
g|----------------------------------------|
d|--14---X6---9---x6----------------------|
a|--12---------9--------------------------|
d|--------------9-------------------------|
Comments