Hell Is For Heroes - This Is Why Chords & Tabs

 

This Is Why Chords & Tabs

Hell Is For Heroes Chords & Tabs

Version: 1 Type: Tab 0 ratings
1 star 2 stars 3 stars 4 stars 5 stars
comments

This Is Why Tab

THIS IS WHY
Hell Is For Heroes
Transcribed by Stephen Jones 

{NOTE: Both Tom and Will's guitars are almost always tuned to DADGBE ('drop D' tuning)!}


{this riff continues all the way through until the bridge}
e|---------5-5-5-5-|---------1-1-1-1-|-2-2-2-2-2-2-2-1-|-----------------|
B|-2-2-2-2---------|-----------------|-----------------|-2-2-2-2-2-3-2-2-|
G|-----------------|-1-1-1-1---------|-----------------|-----------------|
D|-----------------|-----------------|-----------------|-----------------|
A|-----------------|-----------------|-----------------|-----------------|
D|-----------------|-----------------|-----------------|-----------------|


e|-----------------|-----------------|-----------------|-----------------|
B|-----------------|-----------------|-----------------|-----------------|
G|-2-2-2-2-2-2-2-2-|-6-6-6-6-6-6-6-6-|-2-2-2-2-2-2-2-2-|-2-2-2-2-2-2-2-2-|
D|-2-2-2-2-2-2-2-2-|-6-6-6-6-6-6-6-6-|-0-0-0-0-0-0-0-0-|-0-0-0-0-0-0-0-0-|
A|-0-0-0-0-0-0-0-0-|-4-4-4-4-4-4-4-4-|-0-0-0-0-0-0-0-0-|-0-0-0-0-0-0-0-0-|
D|-----------------|-----------------|-0-0-0-0-0-0-0-0-|-0-0-0-0-0-0-0-0-|
  (all of these chords are played muted)
                				        (stop muting...)
e|-----------------|-----------------|-----------------|-2-2-2-2-2-2-2-2-|
B|-----------------|-----------------|-----------------|-3-3-3-3-3-3-3-3-|
G|-2-2-2-2-2-2-2-2-|-6-6-6-6-6-6-6-6-|-2-2-2-2-2-2-2-2-|-2-2-2-2-2-2-2-2-|
D|-2-2-2-2-2-2-2-2-|-6-6-6-6-6-6-6-6-|-0-0-0-0-0-0-0-0-|-0-0-0-0-0-0-0-0-|
A|-0-0-0-0-0-0-0-0-|-4-4-4-4-4-4-4-4-|-0-0-0-0-0-0-0-0-|-0-0-0-0-0-0-0-0-|
D|-----------------|-----------------|-0-0-0-0-0-0-0-0-|-0-0-0-0-0-0-0-0-|
                                                                  


[Will - Tom continues playing intro riff]
{played four times}
e|-----------------|-----------------|-2-2-2-2-2-2-2-2-|-2-2-2-2-2-2-2-2-|
B|-----------------|-----------------|-3-3-3-3-3-3-3-3-|-3-3-3-3-3-3-3-3-|
G|-2-2-2-2-2-2-2-2-|-6-6-6-6-6-6-6-6-|-2-2-2-2-2-2-2-2-|-2-2-2-2-2-2-2-2-|
D|-2-2-2-2-2-2-2-2-|-6-6-6-6-6-6-6-6-|-0-0-0-0-0-0-0-0-|-0-0-0-0-0-0-0-0-|
A|-0-0-0-0-0-0-0-0-|-4-4-4-4-4-4-4-4-|-0-0-0-0-0-0-0-0-|-0-0-0-0-0-0-0-0-|
D|-----------------|-----------------|-0-0-0-0-0-0-0-0-|-0-0-0-0-0-0-0-0-|
1)God knows lead is  heavier   than    Gold,   a  rubber  doll  can still
2)breathe, it's not immune to growing  old,   it   isn't   hard   to   get
3)real,  when   you  know  it's just a dream,  we're  gonna  wipe  it  all
4)clean,   and let  the  parasities   roam...


[Both guitars]
e|-2-2-2-2-2-2-2-2-|-----------------|-2-2-2-2-2-2-2-2-|-----------------|
B|-3-3-3-3-3-3-3-3-|-----------------|-3-3-3-3-3-3-3-3-|-----------------|
G|-2-2-2-2-2-2-2-2-|-----------------|-2-2-2-2-2-2-2-2-|-----------------|
D|-0-0-0-0-0-0-0-0-|-----------------|-0-0-0-0-0-0-0-0-|-----------------|
A|-0-0-0-0-0-0-0-0-|-----------------|-0-0-0-0-0-0-0-0-|-----------------|
D|-0-0-0-0-0-0-0-0-|-----------------|-0-0-0-0-0-0-0-0-|-----------------|
                     Watch it unfold,                  from the front seat,

e|-2-2-2-2-2-2-2-2-|-----------------|-2-2-2-2-2-2-2-2-|-----------------|
B|-3-3-3-3-3-3-3-3-|-----------------|-3-3-3-3-3-3-3-3-|-----------------|
G|-2-2-2-2-2-2-2-2-|-----------------|-2-2-2-2-2-2-2-2-|-----------------|
D|-0-0-0-0-0-0-0-0-|-----------------|-0-0-0-0-0-0-0-0-|-----------------|
A|-0-0-0-0-0-0-0-0-|-----------------|-0-0-0-0-0-0-0-0-|-----------------|
D|-0-0-0-0-0-0-0-0-|-----------------|-0-0-0-0-0-0-0-0-|-----------------|
                     Got a star role,                   In the freak scene...


[Both guitars]
e|------------------------------|------------------------------|
B|------------------------------|------------------------------|
G|-4-4-4-4--4-4-4-4-4--4-4-4--4-|-2-2-2-2--2-2-2-2-2--2-2-2--2-|
D|-4-4-4-4--4-4-4-4-4--4-4-4--4-|-2-2-2-2--2-2-2-2-2--2-2-2--2-|
A|-2-2-2-2--2-2-2-2-2--2-2-2--2-|-0-0-0-0--0-0-0-0-0--0-0-0--0-|
D|------------------------------|------------------------------|
    There      goes      the       time,      it's      over

e|------------------------------|------------------------------|
B|------------------------------|------------------------------|
G|-4-4-4-4--4-4-4-4-4--4-4-4--4-|-2-2-2-2--2-2-2-2-2--2-2-2--2-|
D|-4-4-4-4--4-4-4-4-4--4-4-4--4-|-2-2-2-2--2-2-2-2-2--2-2-2--2-|
A|-2-2-2-2--2-2-2-2-2--2-2-2--2-|-0-0-0-0--0-0-0-0-0--0-0-0--0-|
D|------------------------------|------------------------------|
      We     missed      the          final       curtain

e|------------------------------|------------------------------|
B|------------------------------|------------------------------|
G|-4-4-4-4--4-4-4-4-4--4-4-4--4-|-2-2-2-2--2-2-2-2-2--2-2-2--2-|
D|-4-4-4-4--4-4-4-4-4--4-4-4--4-|-2-2-2-2--2-2-2-2-2--2-2-2--2-|
A|-2-2-2-2--2-2-2-2-2--2-2-2--2-|-0-0-0-0--0-0-0-0-0--0-0-0--0-|
D|------------------------------|------------------------------|
      Wel    -    come             back       the      silence

e|------------------------------|------------------------------|
B|------------------------------|------------------------------|
G|-4-4-4-4--4-4-4-4-4--4-4-4--4-|-4-4-4-4--4-4-4-4-4--4-4-4--4-|
D|-4-4-4-4--4-4-4-4-4--4-4-4--4-|-4-4-4-4--4-4-4-4-4--4-4-4--4-|
A|-2-2-2-2--2-2-2-2-2--2-2-2--2-|-2-2-2-2--2-2-2-2-2--2-2-2--2-|
D|------------------------------|------------------------------|
      It's       com  -  ing        round         a  - gain...
[ Tab from: http://www.guitartabs.cc/tabs/h/hell_is_for_heroes/this_is_why_tab.html ]
- {played twice} [Will - Tom plays usual riff] e|-----------------|-----------------|-2-2-2-2-2-2-2-2-|-2-2-2-2-2-2-2-2-| B|-----------------|-----------------|-3-3-3-3-3-3-3-3-|-3-3-3-3-3-3-3-3-| G|-2-2-2-2-2-2-2-2-|-6-6-6-6-6-6-6-6-|-2-2-2-2-2-2-2-2-|-2-2-2-2-2-2-2-2-| D|-2-2-2-2-2-2-2-2-|-6-6-6-6-6-6-6-6-|-0-0-0-0-0-0-0-0-|-0-0-0-0-0-0-0-0-| A|-0-0-0-0-0-0-0-0-|-4-4-4-4-4-4-4-4-|-0-0-0-0-0-0-0-0-|-0-0-0-0-0-0-0-0-| D|-----------------|-----------------|-0-0-0-0-0-0-0-0-|-0-0-0-0-0-0-0-0-| [Will - Tom plays usual] - {played four times} e|-----------------|-----------------|-2-2-2-2-2-2-2-2-|-2-2-2-2-2-2-2-2-| B|-----------------|-----------------|-3-3-3-3-3-3-3-3-|-3-3-3-3-3-3-3-3-| G|-2-2-2-2-2-2-2-2-|-6-6-6-6-6-6-6-6-|-2-2-2-2-2-2-2-2-|-2-2-2-2-2-2-2-2-| D|-2-2-2-2-2-2-2-2-|-6-6-6-6-6-6-6-6-|-0-0-0-0-0-0-0-0-|-0-0-0-0-0-0-0-0-| A|-0-0-0-0-0-0-0-0-|-4-4-4-4-4-4-4-4-|-0-0-0-0-0-0-0-0-|-0-0-0-0-0-0-0-0-| D|-----------------|-----------------|-0-0-0-0-0-0-0-0-|-0-0-0-0-0-0-0-0-| 1) You make me feel like a ma - chine, silicone and cold 2) steel, can you hear yourself think of everything that you've 3) killed, there's a future in mould, like a fungus, love 4) grows, it suffocates and chokes... [Both guitars] e|-2-2-2-2-2-2-2-2-|-----------------|-2-2-2-2-2-2-2-2-|-----------------| B|-3-3-3-3-3-3-3-3-|-----------------|-3-3-3-3-3-3-3-3-|-----------------| G|-2-2-2-2-2-2-2-2-|-----------------|-2-2-2-2-2-2-2-2-|-----------------| D|-0-0-0-0-0-0-0-0-|-----------------|-0-0-0-0-0-0-0-0-|-----------------| A|-0-0-0-0-0-0-0-0-|-----------------|-0-0-0-0-0-0-0-0-|-----------------| D|-0-0-0-0-0-0-0-0-|-----------------|-0-0-0-0-0-0-0-0-|-----------------| Watch it unfold, from the front seat, e|-2-2-2-2-2-2-2-2-|-----------------|-2-2-2-2-2-2-2-2-|-----------------| B|-3-3-3-3-3-3-3-3-|-----------------|-3-3-3-3-3-3-3-3-|-----------------| G|-2-2-2-2-2-2-2-2-|-----------------|-2-2-2-2-2-2-2-2-|-----------------| D|-0-0-0-0-0-0-0-0-|-----------------|-0-0-0-0-0-0-0-0-|-----------------| A|-0-0-0-0-0-0-0-0-|-----------------|-0-0-0-0-0-0-0-0-|-----------------| D|-0-0-0-0-0-0-0-0-|-----------------|-0-0-0-0-0-0-0-0-|-----------------| Got a star role, In the freak scene... [Both guitars] e|------------------------------|------------------------------| B|------------------------------|------------------------------| G|-4-4-4-4--4-4-4-4-4--4-4-4--4-|-2-2-2-2--2-2-2-2-2--2-2-2--2-| D|-4-4-4-4--4-4-4-4-4--4-4-4--4-|-2-2-2-2--2-2-2-2-2--2-2-2--2-| A|-2-2-2-2--2-2-2-2-2--2-2-2--2-|-0-0-0-0--0-0-0-0-0--0-0-0--0-| D|------------------------------|------------------------------| There goes the time, it's over e|------------------------------|------------------------------| B|------------------------------|------------------------------| G|-4-4-4-4--4-4-4-4-4--4-4-4--4-|-2-2-2-2--2-2-2-2-2--2-2-2--2-| D|-4-4-4-4--4-4-4-4-4--4-4-4--4-|-2-2-2-2--2-2-2-2-2--2-2-2--2-| A|-2-2-2-2--2-2-2-2-2--2-2-2--2-|-0-0-0-0--0-0-0-0-0--0-0-0--0-| D|------------------------------|------------------------------| We missed the final curtain e|------------------------------|------------------------------| B|------------------------------|------------------------------| G|-4-4-4-4--4-4-4-4-4--4-4-4--4-|-2-2-2-2--2-2-2-2-2--2-2-2--2-| D|-4-4-4-4--4-4-4-4-4--4-4-4--4-|-2-2-2-2--2-2-2-2-2--2-2-2--2-| A|-2-2-2-2--2-2-2-2-2--2-2-2--2-|-0-0-0-0--0-0-0-0-0--0-0-0--0-| D|------------------------------|------------------------------| Wel - come back the silence e|------------------------------|------------------------------| B|------------------------------|------------------------------| G|-4-4-4-4--4-4-4-4-4--4-4-4--4-|-2-2-2-2--2-2-2-2-2--2-2-2--2-| D|-4-4-4-4--4-4-4-4-4--4-4-4--4-|-2-2-2-2--2-2-2-2-2--2-2-2--2-| A|-2-2-2-2--2-2-2-2-2--2-2-2--2-|-0-0-0-0--0-0-0-0-0--0-0-0--0-| D|------------------------------|------------------------------| It's com - ing round a - gain... [both guitars - double time] {played twice} e|-2-2-2-2-2-2-2-2-|-2-2-2-2-2-2-2-2-|-----------------|-----------------| B|-3-3-3-3-3-3-3-3-|-3-3-3-3-3-3-3-3-|-2-2-2-2-2-2-2-2-|-----------------| G|-2-2-2-2-2-2-2-2-|-2-2-2-2-2-2-2-2-|-2-2-2-2-2-2-2-2-|-6-6-6-6-6-6-6-6-| D|-0-0-0-0-0-0-0-0-|-0-0-0-0-0-0-0-0-|-2-2-2-2-2-2-2-2-|-4-4-4-4-4-4-4-4-| A|-0-0-0-0-0-0-0-0-|-0-0-0-0-0-0-0-0-|-0-0-0-0-0-0-0-0-|-4-4-4-4-4-4-4-4-| D|-0-0-0-0-0-0-0-0-|-0-0-0-0-0-0-0-0-|-----------------|-4-4-4-4-4-4-4-4-| It's over, the silence, - {played twice} e|-2-2-2-2-2-2-2-2-|-----------------|-2-2-2-2-2-2-2-2-|-----------------| B|-3-3-3-3-3-3-3-3-|-----------------|-3-3-3-3-3-3-3-3-|-----------------| G|-2-2-2-2-2-2-2-2-|-----------------|-2-2-2-2-2-2-2-2-|-----------------| D|-0-0-0-0-0-0-0-0-|-----------------|-0-0-0-0-0-0-0-0-|-----------------| A|-0-0-0-0-0-0-0-0-|-----------------|-0-0-0-0-0-0-0-0-|-----------------| D|-0-0-0-0-0-0-0-0-|-----------------|-0-0-0-0-0-0-0-0-|-----------------| (drum break) (drum break) [Both guitars] e|-2-2-2-2-2-2-2-2-|-----------------|-2-2-2-2-2-2-2-2-|-----------------| B|-3-3-3-3-3-3-3-3-|-----------------|-3-3-3-3-3-3-3-3-|-----------------| G|-2-2-2-2-2-2-2-2-|-----------------|-2-2-2-2-2-2-2-2-|-----------------| D|-0-0-0-0-0-0-0-0-|-----------------|-0-0-0-0-0-0-0-0-|-----------------| A|-0-0-0-0-0-0-0-0-|-----------------|-0-0-0-0-0-0-0-0-|-----------------| D|-0-0-0-0-0-0-0-0-|-----------------|-0-0-0-0-0-0-0-0-|-----------------| Watch it unfold, from the front seat, e|-2-2-2-2-2-2-2-2-|-----------------|-2-2-2-2-2-2-2-2-|-----------------|| B|-3-3-3-3-3-3-3-3-|-----------------|-3-3-3-3-3-3-3-3-|-----------------|| G|-2-2-2-2-2-2-2-2-|-----------------|-2-2-2-2-2-2-2-2-|-----------------|| D|-0-0-0-0-0-0-0-0-|-----------------|-0-0-0-0-0-0-0-0-|-----------------|| A|-0-0-0-0-0-0-0-0-|-----------------|-0-0-0-0-0-0-0-0-|-----------------|| D|-0-0-0-0-0-0-0-0-|-----------------|-0-0-0-0-0-0-0-0-|-----------------|| Got a star role, In the freak scene!
Comments