Hell Is For Heroes - They Will Call Us Savages Chords & Tabs

 

They Will Call Us Savages Chords & Tabs

Hell Is For Heroes Chords & Tabs

Version: 1 Type: Tab 0 ratings
1 star 2 stars 3 stars 4 stars 5 stars
comments

They Will Call Us Savages Tab

-------------------------------------------------
 They will call us savages - Hell is for heroes
-------------------------------------------------

Written by: Hell is for heroes
Album: Transmit disrupt

Tabbed by:Rory Downham
Email:Voodoo_squirrel@hotmail.com

Tuning:DADGBE (Drop-D)

This tab works pretty well, although I have no idea if this is how Hell is for heroes
play it! It is an amazing song, hope this works out for you!

INTRO:

e|----------------------------------------------|
B|--------10--------10--------10----------------|
G|---11--------11--------11--------11---11---11-|
D|-9----9----9----9----9----9----9----9----0----|
A|----------------------------------------------|
D|----------------------------------------------|

e|---9--------9--------9-----------|
B|---------------------------------|
G|-------11-------11-------11---11-|
D|-0---0----0---0----0---0----0----|
A|---------------------------------|
D|---------------------------------|
                                     Play four times


VERSE:

e|-----------------------------|
B|-----------------------------|
G|-----------------------------|
D|--11-(X16)--12-(X8)--7-(X8)--|
A|---9-(X16)--12-(X8)--7-(X8)--|
D|---9-(X16)---0-(X8)--7-(X8)--| Play four times


chorus:

e|-------------------------------------------------------------------------|
B|-------------------------------------------------------------------------|
G|-------------------------------------------------------------------------|
D|--4-(X16)--5-(X16)--9-(X16)--4-(X16)--5-(X16)--9-(X16)--4-(X16)--5-(X16)-|
A|--4-(X16)--5-(X16)--9-(X16)--4-(X16)--5-(X16)--9-(X16)--4-(X16)--5-(X16)-|
D|--4-(X16)--5-(X16)--9-(X16)--4-(X16)--5-(X16)--9-(X16)--4-(X16)--5-(X16)-|
[ Tab from: http://www.guitartabs.cc/tabs/h/hell_is_for_heroes/they_will_call_us_savages_tab.html ]
Then...
e|----------------------------------------------|
B|--------10--------10--------10----------------|
G|---11--------11--------11--------11---11---11-|
D|-9----9----9----9----9----9----9----9----0----|
A|----------------------------------------------|
D|----------------------------------------------|

e|---9--------9--------9-----------|
B|---------------------------------|
G|-------11-------11-------11---11-|
D|-0---0----0---0----0---0----0----|
A|---------------------------------|
D|---------------------------------|
                                    Play twice


VERSE:

e|-----------------------------|
B|-----------------------------|
G|-----------------------------|
D|--11-(X16)--12-(X8)--7-(X8)--|
A|---9-(X16)--12-(X8)--7-(X8)--|
D|---9-(X16)---0-(X8)--7-(X8)--| Play four times

chorus:

e|------------------------------------------------------------------------|
B|------------------------------------------------------------------------|
G|------------------------------------------------------------------------|
D|-4-(X16)--5-(X16)--9-(X16)--4-(X16)--5-(X16)--9-(X16)--4-(X16)--5-(X16)-|
A|-4-(X16)--5-(X16)--9-(X16)--4-(X16)--5-(X16)--9-(X16)--4-(X16)--5-(X16)-|
D|-4-(X16)--5-(X16)--9-(X16)--4-(X16)--5-(X16)--9-(X16)--4-(X16)--5-(X16)-|

Then...

(This bit is probably the bass part)
e|---------------------------|
B|---------------------------|
G|---------------------------|
D|---------------------------|
A|---------------------------|
D|--9--7--9--7--4--2--4--7---|

Gtr1
e|------------------------------------|
B|------------------------------------|
G|------------9-(X4)-11-(X4)----------|
D|--12-(X16)--x-(X4)--x-(X4)--7-(X8)--|
A|--12-(X16)--7-(X4)--9-(X4)--7-(X8)--|
D|--12-(X16)--0-(X4)--0-(X4)--7-(X8)--| Repeat

Gtr2 (comes in after 4 bars of the above)
e|------------------------------------|
B|------------------------------------|
G|-22244424666666667777779966666666---|
D|------------------------------------|
A|------------------------------------|
D|------------------------------------| Repeat
Comments