Hell Is For Heroes - Slow Song Chords & Tabs

 

Slow Song Chords & Tabs

Hell Is For Heroes Chords & Tabs

Version: 1 Type: Tab 0 ratings
1 star 2 stars 3 stars 4 stars 5 stars
comments

Slow Song Tab

   
hell is for heroes - slow song

drop d-tuning

/ = slide
# = tremolo pick

intro (clean)

e|---------------------------------------------------------------------------|
B|---------------------------------------------------------------------------|
G|---------------------------------------------------------------------------|
D|---12------12--12--12--12--12--12--12----12--12--12--12--12--12------------|
A|---10--X---10--10--10--10--10--10---9--X--9---9---9---9---9---9--9----9--9-
d|-----------------------------------------------------------------9-X--9--9-|

e|---------------------------------------------------------------------------|
B|---------------------------------------------------------------------------|
G|---------------------------------------------------------------------------|
D|---------------------------------------------------------------------------|
A|---9--9--9--9---10-----10--10--10--10--10--10------------------------------|
d|---9--9--9--9---10--X--10--10--10--10--10--10-----however many times-------

Then end on:
e|---------------------------------------------------------------------------|
B|-------13------------------------------------------------------------------|
G|-------12------------------------------------------------------------------|
D|---------------------------------------------------------------------------|
A|---------------------------------------------------------------------------|
d|---------------------------------------------------------------------------|


Then

e|---------------------------------------------------------------------------|
B|---------------------------------------------------------------------------|
G|---------9-9-9-7-7/11-11-11-11-7-7-7-7-7-7-7-7-----------------------------|
D|---------------------------------------------------------------------------|
A|---------------------------------------------------------------------------|
d|---------------------------------------------------------------------------|

chorus : (its the best i could come up with!)

e|--------------------------------------8-----------------8------------------|
B|--------------------------------------8-----------------8------------------|
G|---------------------------------------------------------------------------|
D|-----(however many strums)-------------------------------------------------|
A|---10-10-10-10-10-10-10-10-10\-5-5-5-----5-5-5-5-5-5-5---------------------|
d|---10-10-10-10-10-10-10-10-10\-5-5-5-----5-5-5-5-5-5-5---------------------|
[ Tab from: http://www.guitartabs.cc/tabs/h/hell_is_for_heroes/slow_song_tab.html ]
Then just:
e|---------------------------------------------------------------------------|
B|---------------------------------------------------------------------------|
G|---------------------------------------------------------------------------|
D|--12-12-12-12-12-12-12-12-12-12-12-12-12-12-12-12--------------------------|
A|--10-10-10-10-10-10-10-10--9--9--9--9--9--9--9--9--9-9-9-9-9-9-9-9--10-10--|
d|---------------------------------------------------9-9-9-9-9-9-9-9--10-10--|

e|---------------------------------------------------------------------------|
B|---------------------------------------------------------------------------|
G|---------------------------------------------------------------------------|
D|-----------------------------------finish with this chord------------------|
A|---10-10-10-10-10-10------------------------10-----------------------------|
d|---10-10-10-10-10-10------------------------10-----------------------------|


Then the bit after the silence:
(distortion)
e|---------------------------------------------------------------------------|
B|---------------------------------------------------------------------------|
G|----12--------12----------11--------11-------------------------------------|
D|-----x---------x-----------x---------x------however many times-------------|
A|----10---------9-----------9--------10-------------------------------------|
d|-----#---------#-----------#---------#-------------------------------------|

Then:
e|---------------------------------------------------------------------------|
B|-----------------Again however many strums---------------------------------|
G|---------------------------------------------------------------------------|
D|---10-10-10-10-10-10-10-10-10-10-10-10-10\5-5-5-5-5-5-5-5-5-5-5-5-5-5------|
A|---10-10-10-10-10-10-10-10-10-10-10-10-10\5-5-5-5-5-5-5-5-5-5-5-5-5-5------|
d|---10-10-10-10-10-10-10-10-10-10-10-10-10\5-5-5-5-5-5-5-5-5-5-5-5-5-5------|

Then the final bit:


e|---------------------------------------------------------------------------|
B|---------------------------------------------------------------------------|
G|---12/14-14-14--12/14-14-14--12/14-14-14--12/14-14-14----9/11-11-11--------|
D|----x-----x--x---x-----x--x---x-----x--x---x-----x--x----x-----x--x--------|
A|---10/12-12-12--10-12-12-12--10-12-12-12--10-12-12-12----7--9--9--9--------|
d|---------------------------------------------------------------------------|

e|---------------------------------------------------------------------------|
B|--------------------------------------------Then end on:-------------------|
G|---9/11-11-11--9/11-11-11--9/11-11-11----------------------14--------------|
D|---x-----x--x-----x--x--x--x--x--x--x-----------------------x--------------|
A|---7--9--9--9--7--9--9--9--9--9--9--9----------------------12--------------|
d|---------------------------------------------------------------------------|

there you go.....im not too sure about the chorus but i know at least the intro
is right cos i saw them do it live.
Comments