Hell Is For Heroes - One Of Us Chords & Tabs

 

One Of Us Chords & Tabs

Hell Is For Heroes Chords & Tabs

Version: 1 Type: Tab 0 ratings
1 star 2 stars 3 stars 4 stars 5 stars
comments

One Of Us Tab

   
ARTIST: Hell Is For Heroes
TITLE: One Of Us
ALBUM: Transmit Disrupt
TABBED BY: kryptonite22
TUNING: Drop D (D A D G B e)
NOTES: Two guitarists in HIFH, both tuned down to Drop D. Easy to play, listen to song
for timings and rhythm.


INTRO 

e----------------------| 
B----------------------| 
G----------------------| 
D----------------------| 
A--5-------------------| 
D-----0h12-p0-h12-p0---| 


VERSE 

e------------------------| 
B-6-6-6-6---10-10-11-11--| 
G-7-7-7-7---10-10-10-10--| 
D-0-0-0-0----0--0--0--0--| 
A------------------------| 
D------------------------| 


CHORUS - GUITAR ONE
[ Tab from: http://www.guitartabs.cc/tabs/h/hell_is_for_heroes/one_of_us_tab.html ]
e---------------------------------------------| 
B---------------------------------------------| 
G-------12-14-14-12-14--------12-14-14-12-14--| 
D-12-14-----------------12-14-----------------| x2 
A---------------------------------------------| 
D---------------------------------------------| 

e---------------------------------------------| 
B-------13-15-15-13-15--------13-15-15-13-15--| 
G-12-14-----------------12-14-----------------| 
D---------------------------------------------| x2 
A---------------------------------------------| 
D---------------------------------------------| 


CHORUS - GUITAR TWO

e-----------------------| 
B-----------------------| 
G-----------------------| 
D--8888---0000---3333---| 
A--8888---0000---3333---| 
D--8888---0000---3333---| 


OUTRO 

e-----------------------------------| 
B-----------------------------------| 
G-7--2-2-3---3-33-----3-33-----2-3--| 
D-7--2-2-3---3-33-0-0-3-33-0-0-2-3--| 
A-5--0-0-1---1-11-0-0-1-11-0-0-0-1--| 
D-----------------0-0------0-0------| 

VERSE RIFF PLAYS OUT...
Comments