Hell Is For Heroes - Night Vision Chords & Tabs

 

Night Vision Chords & Tabs

Hell Is For Heroes Chords & Tabs

Version: 4 Type: Tab 0 ratings
1 star 2 stars 3 stars 4 stars 5 stars
comments

Night Vision Tab

   
Band: Hell is for Heroes
Song: Night Vision
Album: The Neon Handshake
Tabber: Iain Reilly

Intro (Guitar 2 w/ Distortion) x1
E|---------|
B|-12------|
G|-15b(17)-|
D|---------|
A|---------|
D|---------|

Chorus (Guitar 1 w/ Distortion) x2
E|-----------------------------------------------------------------|
B|-----------------------------------------------------------------|
G|-2-2-2-2-2-2-2-2-2-2-2-2-2-2-2-2---------------------------------|
D|-2-2-2-2-2-2-2-2-2-2-2-2-2-2-2-2-4-4-4-4-4-4-4-4-4-4-4-4-4-4-4-4-|
A|-0-0-0-0-0-0-0-0-0-0-0-0-0-0-0-0-4-4-4-4-4-4-4-4-4-4-4-4-4-4-4-4-|
D|---------------------------------4-4-4-4-4-4-4-4-4-4-4-4-4-4-4-4-|

Chorus (Guitar 2 w/ Distortion) x1
E|--------------------------------------------------------------------------|
B|--------------------------------------------------------------------------|
G|-13--11--------------13--11-------13--11--------------13--11--------------|
D|--------11--11h12p11--------11-----------11--11h12p11--------11--11h12p11-|
A|--------------------------------------------------------------------------|
D|--------------------------------------------------------------------------|

Verse 1 (Guitar 1 & Guitar 2 Clean) x2
E|-----------------------------------------------------------------|
B|-----------------------------------------------------------------|
G|-----9-----9-----9-----9-----9-------6-----6-----6-----6-----6---|
D|---7-----7-----7-----7-----7-------4-----4-----4-----4-----4-----|
A|-------7-----7-----7-----7-----7-------4-----4-----4-----4-----4-|
D|-7-------------------------------4-------------------------------|

Pre-Chorus 1 (Guitar 1 & Guitar 2 w/ Distortion) x1
E|-----------------------------------------------------------------|
B|-----------------------------------------------------------------|
G|-7-7-7-7-7-7-----7-7-7-7-7-7-----7-7-7-7-7-7-----7-7-7-7-7-7-----| Guitar 1
D|-7-7-7-7-7-7-6/7-7-7-7-7-7-7-6/7-7-7-7-7-7-7-6/7-7-7-7-7-7-7-6/7-|
A|-5-5-5-5-5-5-4/5-5-5-5-5-5-5-4/5-5-5-5-5-5-5-4/5-5-5-5-5-5-5-4/5-|
D|-----------------------------------------------------------------|

E|-----------------------------------------------------------------------------------------------|
B|-----------------------------------------------------------------------------------------------|
G|11-11-11-13-13-13-13-13-16-16-16-14-14-14-13-13-11-11-11-13-13-13-13-13-18-18-18-18-18-18-18-18|
D|-----------------------------------------------------------------------------------------------|
A|-----------------------------------------------------------------------------------------------|
D|-----------------------------------------------------------------------------------------------|
 
Guitar 2
E|-----------------------------------------------------------------------------------------------|
B|-----------------------------------------------------------------------------------------------|
G|-----------------------------------------------------------------------------------------------|
D|-x--x--x--x--x--x--x--x--x--x--x--x--x--x--x--x--x--x--x--x--x--x--x--x--x--x--x--x--x--x--x--x|
A|-9--9--9-11-11-11-11-11-14-14-14-12-12-12-11-11--9--9--9-11-11-11-11-11-16-16-16-16-16-16-16-16|
D|-----------------------------------------------------------------------------------------------|

E|---------------------------------|
B|---------------------------------|
G|-6-6-6-6-6-6-6-6-6-6-6-6-6-6-6-6-| Guitar 1
D|-6-6-6-6-6-6-6-6-6-6-6-6-6-6-6-6-|
A|-4-4-4-4-4-4-4-4-4-4-4-4-4-4-4-4-|
D|---------------------------------|

E|-----------------------------------------|
B|-----------------------------------------|
G|-13--------------11-11-11-10-10-10-10-10-| Guitar 2
D|--x---------------x--x--x--x--x--x--x--x-|
A|-11---------------9--9--9--8--8--8--8--8-|
D|-----------------------------------------|

E|-----------------------------------------------------------------|
B|-----------------------------------------------------------------|
G|-7-7-7-7-7-7-----7-7-7-7-7-7-----7-7-7-7-7-7-----7-7-7-7-7-7-----| Guitar 1
D|-7-7-7-7-7-7-----7-7-7-7-7-7-----7-7-7-7-7-7-----7-7-7-7-7-7-----|
A|-5-5-5-5-5-5-4/5-5-5-5-5-5-5-4/5-5-5-5-5-5-5-4/5-5-5-5-5-5-5-4/5-|
D|-----------------------------------------------------------------|
[ Tab from: http://www.guitartabs.cc/tabs/h/hell_is_for_heroes/night_vision_tab_ver_4.html ]
E|------------------------------------Guitar 2---------------------------------------------------|
B|-----------------------------------------------------------------------------------------------|
G|11-11-11-13-13-13-13-13-16-16-16-14-14-14-13-13-11-11-11-13-13-13-13-13-18-18-18-18-18-18-18-18|
D|-x--x--x--x--x--x--x--x--x--x--x--x--x--x--x--x--x--x--x--x--x--x--x--x--x--x--x--x--x--x--x--x|
A|-9--9--9-11-11-11-11-11-14-14-14-12-12-12-11-11--9--9--9-11-11-11-11-11-16-16-16-16-16-16-16-16|
D|-----------------------------------------------------------------------------------------------|

E|-----------------------------------------------------------------|
B|-----------------------------------------------------------------|
G|-6-6-6-6-6-6-6-6-6-6-6-6-6-6-6-6-6-6-6-6-6-6-6-6-6-6-6-6-6-6-6-6-| Guitar 1
D|-6-6-6-6-6-6-6-6-6-6-6-6-6-6-6-6-6-6-6-6-6-6-6-6-6-6-6-6-6-6-6-6-|
A|-4-4-4-4-4-4-4-4-4-4-4-4-4-4-4-4-4-4-4-4-4-4-4-4-4-4-4-4-4-4-4-4-|
D|-----------------------------------------------------------------|

E|-----------------------------------------------------------------|
B|-----------------------------------------------------------------|
G|-13--------------------------------------------------------------| Guitar 1
D|--x--------------------------------------------------------------|
A|-11--------------------------------------------------------------|
D|-----------------------------------------------------------------|

Chorus (Guitar 1 x2 - Guitar 2 x1)

Verse 2 (Guitar 1 w/ Distortion) x2
E|-----------------------------------------------------------------|
B|-----------------------------------------------------------------|
G|-9-9-9-9-9-9-9-9-9-9-9-9-9-9-9-9-6-6-6-6-6-6-6-6-6-6-6-6-6-6-6-6-|
D|-7-7-7-7-7-7-7-7-7-7-7-7-7-7-7-7-4-4-4-4-4-4-4-4-4-4-4-4-4-4-4-4-|
A|-7-7-7-7-7-7-7-7-7-7-7-7-7-7-7-7-4-4-4-4-4-4-4-4-4-4-4-4-4-4-4-4-|
D|-7-7-7-7-7-7-7-7-7-7-7-7-7-7-7-7-4-4-4-4-4-4-4-4-4-4-4-4-4-4-4-4-|

Pre-Chorus 1 (Guitar 1 w/ Distortion) x1

(Play this instead of last bit of Pre-Chorus 1)
E|-----------------------------------------------------------------|
B|-----------------------------------------------------------------|
G|-6-6-6-6-6-6-6-6-6-6-6-6-6-6-6-6-6-6-6-6-6-6-6-6-4-4-4-4-4-4-4-4-|
D|-6-6-6-6-6-6-6-6-6-6-6-6-6-6-6-6-6-6-6-6-6-6-6-6-4-4-4-4-4-4-4-4-|
A|-4-4-4-4-4-4-4-4-4-4-4-4-4-4-4-4-4-4-4-4-4-4-4-4-2-2-2-2-2-2-2-2-|
D|-----------------------------------------------------------------|

Chorus 2 (Guitar 1 w/ Distortion) x2
E|-----------------------------------------------------------------|
B|-----------------------------------------------------------------|
G|-2-2-2-2-2-2-2-2-2-2-2-2-2-2-2-2---------------------------------|
D|-2-2-2-2-2-2-2-2-2-2-2-2-2-2-2-2-4-4-4-0-4-4-4-0-4-4-4-0-4-4-4-0-|
A|-0-0-0-0-0-0-0-0-0-0-0-0-0-0-0-0-4-4-4-0-4-4-4-0-4-4-4-0-4-4-4-0-|
D|---------------------------------4-4-4-0-4-4-4-0-4-4-4-0-4-4-4-0-|

Chorus 2 (Guitar 2 w/ Distortion) x2
E|---------------------------------------------------------------------------------------------|
B|---------------------------------------------------------------------------------------------|
G|6-6-6-6-7-7-7-7-9-9-9-9-11-11-11-11-13-13-13-13-14-14-14-14-16-16-16-16-14-14-14-14-13--11---|
D|x-x-x-x-x-x-x-x-x-x-x-x--x--x--x--x--x--x--x--x--x--x--x--x--x--x--x--x--x--x--x--x--x-----11|
A|4-4-4-4-5-5-5-5-7-7-7-7--9--9--9--9-11-11-11-11-12-12-12-12-14-14-14-14-12-12-12-12-11-------|
D|---------------------------------------------------------------------------------------------|

Pre-Chorus 1 (Guitar 1 w/ Distortion - Guitar 2 w/ Distortion) x1
E|-----------------------------------------------------------------|
B|-----------------------------------------------------------------|
G|-7-7-7-7-7-7-7-7-7-7-7-7-7-7-7-7-7-7-7-7-7-7-7-7-7-7-7-7-7-7-7-7-| Guitar 1
D|-7-7-7-7-7-7-7-7-7-7-7-7-7-7-7-7-7-7-7-7-7-7-7-7-7-7-7-7-7-7-7-7-|
A|-5-5-5-5-5-5-5-5-5-5-5-5-5-5-5-5-5-5-5-5-5-5-5-5-5-5-5-5-5-5-5-5-|
D|-----------------------------------------------------------------|

E|-------------------------------------Guitar 2--------------------------------------------------|
B|-----------------------------------------------------------------------------------------------|
G|11-11-11-13-13-13-13-13-16-16-16-14-14-14-13-13-11-11-11-13-13-13-13-13-18-18-18-18-18-18-18-18|
D|-x--x--x--x--x--x--x--x--x--x--x--x--x--x--x--x--x--x--x--x--x--x--x--x--x--x--x--x--x--x--x--x|
A|-9--9--9-11-11-11-11-11-14-14-14-12-12-12-11-11--9--9--9-11-11-11-11-11-16-16-16-16-16-16-16-16|
D|-----------------------------------------------------------------------------------------------|

E|-----------------------------------------------------------------|
B|-----------------------------------------------------------------|
G|-6-6-6-6-6-6-6-6-6-6-6-6-6-6-6-6-6-6-6-6-6-6-6-6-6-6-6-6-6-6-6-6-| Guitar 1
D|-6-6-6-6-6-6-6-6-6-6-6-6-6-6-6-6-6-6-6-6-6-6-6-6-6-6-6-6-6-6-6-6-|
A|-4-4-4-4-4-4-4-4-4-4-4-4-4-4-4-4-4-4-4-4-4-4-4-4-4-4-4-4-4-4-4-4-|
D|-----------------------------------------------------------------|

Chorus (Guitar 1 x4 - Guitar 2 x2)
Verse 1 (Guitar 1 & Guitar2 Clean) x3 (Fade out after second time)
Comments