Hell Is For Heroes - Kill The Silence Chords & Tabs

 

Kill The Silence Chords & Tabs

Hell Is For Heroes Chords & Tabs

Version: 1 Type: Tab 0 ratings
1 star 2 stars 3 stars 4 stars 5 stars
comments

Kill The Silence Tab

song - Kill the silence
band - hell is for heroes
tuning - drop D (DADGBe)
tabed by - stee tee
e-mail - steetus@hotmail.com

this shouldnt be to demanding.....very repetitive, but still another 
amazing song by h.i.f.h


intro -  guitar 1

e-----------------------------------------------------------------
B-----------------------------------------------------------------
G-7-7-7-7-77-7-7-7-7-7-7-77-7-7-----------------------------------
D--------------------------------4-4-4-4-4-4-4-4-4-4-4-4-4-4-4-4--
A-----------------------------------------------------------------
D-----------------------------------------------------------------

intro - guitar 2

e-----------------------------------------------------------------
B-----------------------------------------------------------------
G-----------------------------------------------------------------
D-----------------------------------------------------------------
A-----------------------------------------------------------------
D-----------------------------------------------------------------


intro 2 - guitar 1

e-----------------------------------------------------------------
B-----------------------------------------------------------------
G-7-7-7-7-77-7-7-7-7-7-7-77-7-7-----------------------------------
D--------------------------------4-4-4-4-4-4-4-4-4-4-4-4-4-4-4-4--
A-----------------------------------------------------------------
D-----------------------------------------------------------------

intro 2 - guitar 2

e-----------------------------------------------------------------
B-----------------------------------------------------------------
G-----------------------------------------------------------------
D-5-5-5-5-55-5-5-5-5-5-5-55-5-5--0-0-0-0-2-0-0-0-0-0-0-0-0-2-0-0--
A-5-5-5-5-55-5-5-5-5-5-5-55-5-5--0-0-0-0-2-0-0-0-0-0-0-0-0-2-0-0--
D-5-5-5-5-55-5-5-5-5-5-5-55-5-5--0-0-0-0-2-0-0-0-0-0-0-0-0-2-0-0--

verse - guitar 1

e-----------------------------------------------------------------
B-----------------------------------------------------------------
G-7-7-7-7-77-7-7-7-7-7-7-77-7-7-----------------------------------
D--------------------------------4-4-4-4-4-4-4-4-4-4-4-4-4-4-4-4--   x3
A-----------------------------------------------------------------
D-----------------------------------------------------------------

verse - guitar 2

e-----------------------------------------------------------------
B-----------------------------------------------------------------
G-----------------------------------------------------------------
D-5-5-5-5-55-5-5-5-5-5-5-55-5-5--0-0-0-0-2-0-0-0-0-0-0-0-0-2-0-0--   x3
A-5-5-5-5-55-5-5-5-5-5-5-55-5-5--0-0-0-0-2-0-0-0-0-0-0-0-0-2-0-0--
D-5-5-5-5-55-5-5-5-5-5-5-55-5-5--0-0-0-0-2-0-0-0-0-0-0-0-0-2-0-0--


verse, slight change before chorus - guitar 1

e-----------------------------------------------------------------
B-----------------------------------------------------------------
G-7-7-7-7-77-7-7-7-7-7-7-77-7-7--6-6-6-6-6-6-6-6-6-6-6-6-6-6-6-6--
D-----------------------------------------------------------------
A-----------------------------------------------------------------
D-----------------------------------------------------------------

verse, slight change before chorus - guitar 2

e-----------------------------------------------------------------
B-----------------------------------------------------------------
G-5-5-5-5-55-5-5-5-5-5-5-55-5-5-----------------------------------
D--------------------------------4-4-4-4-4-4-4-4-4-4-4-4-4-4-4-4--
A-----------------------------------------------------------------
D-----------------------------------------------------------------


chorus - guitar 1


e-------------------------------------
B-------------------------------------
G-x10---x10x9---x9-x10---x10x9---x9---
D-xx----xx-xx---xx-xx----xx-xx---xx---
A-x8----x8-x7---x7-x8----x8-x7---x7---
D-------------------------------------

chorus - guitar 2 

e-------------------------------------
B-------------------------------------
G-------------------------------------
D-x8-x-x-8-x8-x-x8-x8-x-x-8-x8-x-x8---
A-x8-x-x-8-x8-x-x8-x8-x-x-8-x8-x-x8---
D-x8-x-x-8-x8-x-x8-x8-x-x-8-x8-x-x8---

chorus continued - guitar 1

e-------------------------------------------------------------------------
B-------------------------------------------------------------------------
G--1010101010101010-9-9-9-9-9-9-9-9---1010101010101010--9-9-9-9-9-9-9-9---
D--x-x-x-x-x-x-x-x--x-x-x-x-x-x-x-x---x-x-x-x-x-x-x-x---x-x-x-x-x-x-x-x---
A--8-8-8-8-8-8-8-8--7-7-7-7-7-7-7-7---8-8-8-8-8-8-8-8---7-7-7-7-7-7-7-7---
D-------------------------------------------------------------------------

chorus continued - guitar 2
[ Tab from: http://www.guitartabs.cc/tabs/h/hell_is_for_heroes/kill_the_silence_tab.html ]
e-------------------------------------------------------------------------
B-------------------------------------------------------------------------
G-------------------------------------------------------------------------
D--0-0--0--0-0--0----0-0--0--0-0--0----0-0--0--0-0--0----0-0--0--0-0--0---
A--0-0--0--0-0--0----0-0--0--0-0--0----0-0--0--0-0--0----0-0--0--0-0--0---
D--0-0--0--0-0--0----0-0--0--0-0--0----0-0--0--0-0--0----0-0--0--0-0--0---
pm ...     ...       ...     ...       ...     ...       ...     ...


then play it again

intro x1
verse x3
verse(with the slight change)x1



chorus 2 - guitar 1


e-------------------------------------
B-------------------------------------
G-x10---x10x9---x9-x10---x10x9---x9---
D-xx----xx-xx---xx-xx----xx-xx---xx---
A-x8----x8-x7---x7-x8----x8-x7---x7---
D-------------------------------------

chorus 2 - guitar 2 

e-------------------------------------
B-------------------------------------
G-------------------------------------
D-x8-x-x-8-x8-x-x8-x8-x-x-8-x8-x-x8---
A-x8-x-x-8-x8-x-x8-x8-x-x-8-x8-x-x8---
D-x8-x-x-8-x8-x-x8-x8-x-x-8-x8-x-x8---

chorus continued - guitar 1 

e-------------------------------------------------------------------------
B-------------------------------------------------------------------------
G--1010101010101010--1212121212121212-1414141414141414--15151515151515515-
D--x-x-x-x-x-x-x-x---x-x-x-x-x-x-x-x--x-x-x-x-x-x-x-x---x-x-x-x-x-xx-x-x--
A--8-8-8-8-8-8-8-8---1010101010101010-1212121212121212--1313131313131313--
D-------------------------------------------------------------------------

chorus continued - guitar 2

e-------------------------------------------------------------------------
B-------------------------------------------------------------------------
G-------------------------------------------------------------------------
D--0-0--0--0-0--0----0-0--0--0-0--0----0-0--0--0-0--0----0-0--0--0-0--0---
A--0-0--0--0-0--0----0-0--0--0-0--0----0-0--0--0-0--0----0-0--0--0-0--0---
D--0-0--0--0-0--0----0-0--0--0-0--0----0-0--0--0-0--0----0-0--0--0-0--0---
pm ...     ...       ...     ...       ...     ...       ...     ...


then play it again

chorus - guitar 1


e-------------------------------------
B-------------------------------------
G-x10---x10x9---x9-x10---x10x9---x9---
D-xx----xx-xx---xx-xx----xx-xx---xx---
A-x8----x8-x7---x7-x8----x8-x7---x7---
D-------------------------------------

chorus - guitar 2 

e-------------------------------------
B-------------------------------------
G-------------------------------------
D-x8-x-x-8-x8-x-x8-x8-x-x-8-x8-x-x8---
A-x8-x-x-8-x8-x-x8-x8-x-x-8-x8-x-x8---
D-x8-x-x-8-x8-x-x8-x8-x-x-8-x8-x-x8---

chorus continued - guitar 1

e-------------------------------------------------------------------------
B-------------------------------------------------------------------------
G--1010101010101010-9-9-9-9-9-9-9-9---1010101010101010--9-9-9-9-9-9-9-9---
D--x-x-x-x-x-x-x-x--x-x-x-x-x-x-x-x---x-x-x-x-x-x-x-x---x-x-x-x-x-x-x-x---
A--8-8-8-8-8-8-8-8--7-7-7-7-7-7-7-7---8-8-8-8-8-8-8-8---7-7-7-7-7-7-7-7---
D-------------------------------------------------------------------------

chorus continued - guitar 2

e-------------------------------------------------------------------------
B-------------------------------------------------------------------------
G-------------------------------------------------------------------------
D--0-0--0--0-0--0----0-0--0--0-0--0----0-0--0--0-0--0----0-0--0--0-0--0---
A--0-0--0--0-0--0----0-0--0--0-0--0----0-0--0--0-0--0----0-0--0--0-0--0---
D--0-0--0--0-0--0----0-0--0--0-0--0----0-0--0--0-0--0----0-0--0--0-0--0---
pm ...     ...       ...     ...       ...     ...       ...     ...


bridge - guitar 1


e-------------------
B-------------------
G-7-7-7-7-7-7-7-7---
D-------------------
A-------------------
D-------------------

bridge - guitar 2

e-------------------
B-------------------
G-------------------
D-------------------
A-------------------
D-------------------


bridge continued - guitar 1  (the "dont look backwards" part)

e-----------------------------------------------------------------
B-----------------------------------------------------------------
G-7-7-7-7-77-7-7-7-7-7-7-77-7-7-----------------------------------
D--------------------------------4-4-4-4-4-4-4-4-4-4-4-4-4-4-4-4--  x6
A-----------------------------------------------------------------
D-----------------------------------------------------------------

bridge continued - guitar 2

e-----------------------------------------------------------------
B-----------------------------------------------------------------
G-----------------------------------------------------------------
D-5-5-5-5-55-5-5-5-5-5-5-55-5-5--2-2-2-2-2-2-2-2-2-2-2-2-2-2-x-0--  x6
A-5-5-5-5-55-5-5-5-5-5-5-55-5-5--2-2-2-2-2-2-2-2-2-2-2-2-2-2-x-0--
D-5-5-5-5-55-5-5-5-5-5-5-55-5-5--2-2-2-2-2-2-2-2-2-2-2-2-2-2-x-0--

then this....

guitar - 1

e--------------------------------
B--------------------------------
G-7-7-7-7-77-7-7-7-7-7-7-77-7-7--
D--------------------------------
A--------------------------------
D--------------------------------

guitar - 2

e--------------------------------
B--------------------------------
G--------------------------------
D-5-5-5-5-55-5-5-5-5-5-5-55-5-5--
A-5-5-5-5-55-5-5-5-5-5-5-55-5-5--
D-5-5-5-5-55-5-5-5-5-5-5-55-5-5--

straight into chorus 2 x4

then end..

enjoy... 
any requests/corrections/comments... send to my e-mail

stee

Comments