Hell Is For Heroes - I Can Climb Mountains Chords & Tabs

 

I Can Climb Mountains Chords & Tabs

Hell Is For Heroes Chords & Tabs

Version: 6 Type: Tab 0 ratings
1 star 2 stars 3 stars 4 stars 5 stars
comments

I Can Climb Mountains Tab

   
#---------------------------------PLEASE NOTE----------------------------------#
#This file is the author's own work and represents their interpretation of the #
#song. You may only use this file for private study, scholarship, or research. #
#------------------------------------------------------------------------------#

Title: I Can Climb Mountains
Artist: Hell Is For Heroes
Album: 

Instrument: 6 String Guitar

Tabbed by: mark brown (markusbrownus2@hotmail.com)

Tuning: Dropped D (D A D G B E)

Simple song won't take long 2 learn.  The harmonics r tapped (basically rest ur finger lightly
over the 7th and 5th fret to get the bell sound!) and thats it enjoy and play along with this
incredible song!!

Intro/Verse
Gtr 1 (clean)
   Harm-------------------------------------------------------------------------|
E|---------------------------------------------------------------------------------||
B|---------------------------------------------------------------------------------||
G|---------------------------------------------------------------------------------||
D|-----------<5>----------<5>----------<5>---------<4>----------<4>---------<4>----||
A|-------<5>----------<5>----------<5>---------<4>----------<4>---------<4>--------||
D|---<5>----------<5>----------<5>---------<4>----------<4>---------<4>------------||

Gtr 2(dist)
p.m-----------------------------------------------------------------|
E|-------------------------------------------------------------------||
B|-------------------------------------------------------------------||
G|---------------------------4-4-4-4-------------------------4-4-4-4-||
D|-0-0-0-0-0-0-0-0-0-0-0-0-0-4-4-4-4-4-4-4-4-4-4-4-4-4-4-4-4-4-4-4-4-||
A|-0-0-0-0-0-0-0-0-0-0-0-0-0-2-2-2-2-4-4-4-4-4-4-4-4-4-4-4-4-2-2-2-2-||
D|-0-0-0-0-0-0-0-0-0-0-0-0-0---------4-4-4-4-4-4-4-4-4-4-4-4---------||
[ Tab from: http://www.guitartabs.cc/tabs/h/hell_is_for_heroes/i_can_climb_mountains_tab_ver_6.html ]
Chorus
Gtr 1
E|--------------------------------------------------------------------||
B|--------------------------------------------------------------------||
G|--------------4-4-4-------------4-4-4--------7-7-7-7-------7-7-7-7--||
D|-5-x-5-x-5-5--4-4-4--5-x-5-x-5--4-4-4--2-2-2-x-x-x-x-2-2-2-x-x-x-x--||
A|-5-x-5-x-5-5--2-2-2--5-x-5-x-5--2-2-2--2-2-2-5-5-5-5-2-2-2-5-5-5-5--||
D|-5-x-5-x-5-5---------5-x-5-x-5---------2-2-2---------2-2-2----------||

Gtr 2
E|--------------------------------------------------------------------||
B|--------------------------------------------------------------------||
G|--------------4-4-4-------------4-4-4-------------------------------||
D|-5-x-5-x-5-5--4-4-4--5-x-5-x-5--4-4-4--2-2-2-0-0-0-0-2-2-2-0-0-0-0--||
A|-5-x-5-x-5-5--2-2-2--5-x-5-x-5--2-2-2--2-2-2-0-0-0-0-2-2-2-0-0-0-0--||
D|-5-x-5-x-5-5---------5-x-5-x-5---------2-2-2-0-0-0-0-2-2-2-0-0-0-0--||

Chorus (second time
Gtrs 1&2
E|--------------------------------------------------------------------||
B|--------------------------------------------------------------------||
G|--------------4-4-4-------------4-4-4--9-9-9-7-7-7-7-9-9-9-7-7-7-7--||
D|-5-x-5-x-5-5--4-4-4--5-x-5-x-5--4-4-4--x-x-x-x-x-x-x-x-x-x-x-x-x-x--||
A|-5-x-5-x-5-5--2-2-2--5-x-5-x-5--2-2-2--7-7-7-5-5-5-5-7-7-7-5-5-5-5--||
D|-5-x-5-x-5-5---------5-x-5-x-5--------------------------------------||

Bridge
Gtr 2  Gtr 1 (feedback from amp)
E|---------------------------------------------|-------------------------||
B|---------------------------------------------|-------------------------||
G|---------------------------------------------|-10--10-10-10-0--10-10-10||
D|---------------------------------------------|-8---8--8--8--0--8--8--8-||
A|-----------0---------------------0-----------|-8---8--8--8--0--8--8--8-||
D|--8--8-8-8-0--8-8-8--0--8--8-8-8-0--8-8-8-0--|-8---8--8--8--0--8--8--8-||

E|------------------------------------||
B|------------------------------------||
G|------------------------------------||
D|--5-5-5-5-5-5-5-5-5-5-5-5-5-5-5-5---||
A|--5-5-5-5-5-5-5-5-5-5-5-5-5-5-5-5---||
D|--5-5-5-5-5-5-5-5-5-5-5-5-5-5-5-5---||	
Outro
Gtr 1 w/chorus (im not sure if this bit is rite but u cud proberly get it)
E|-------------------------------------------------||
B|-------------------------------------------------||
G|-7-7-7-7-7-7-7-7-7--1-1-1-1-2-2-2-2-2-1-1-1------||
D|-x-x-x-x-x-x-x-x-x--x-x-x-x-x-x-x-x-x-x-x-x------||
A|-5-5-5-5-5-5-5-5-5--0-0-0-0-0-0-0-0-0-0-0-0------||
D|-------------------------------------------------||

Gtr 1 & 2
E|-----------------||
B|-----------------||
G|-----------------||
D|--0--------------||
A|--0--------------||
D|--0--------------||
Comments