Hell Is For Heroes - I Can Climb Mountains Chords & Tabs

 

I Can Climb Mountains Chords & Tabs

Hell Is For Heroes Chords & Tabs

Version: 3 Type: Tab 0 ratings
1 star 2 stars 3 stars 4 stars 5 stars
comments

I Can Climb Mountains Tab

Artist - hell is for heroes
Song - I can climb mountains 


Intro :

E---------------------------------------------------------------------------------------------------------------------------------------
B---------------------------------------------------------------------------------------------------------------------------------------
G---------------------------------------------------------------------------------------------------------------------------------------
D---------- ( 5 )--------- ( 5 )---------( 5 )----------- ( 5 )----------- ( 4 )---------- ( 4 )-------- ( 4 )--------- ( 4  )-----------
A -- --- ( 5 ) -------- ( 5 )--------- ( 5 )-----------( 5 )------------ ( 4 )--------- ( 4 )--------- ( 4 ) -------- ( 4 )  -------------   
D - ( 5 )---------( 5 )---------- ( 5 )----------- ( 5 )------------ ( 4 )--------- ( 4 )-------- ( 4 ) --------- ( 4 )------------------


Play this four times ( 2 without the second guitar and 2 with )

Verse : 

E-----------------------
B----------------------
G----------4----------
D----0 --- 4----4----9
A ---0-----2----4--- 9
D ---0 ----------4--- 9                              play with palm muting - listen to the c d for the rhythm 

Chorus : 

                
[ Tab from: http://www.guitartabs.cc/tabs/h/hell_is_for_heroes/i_can_climb_mountains_tab_ver_3.html ]
E--------------                                        E ----------------------------
B-------------                                         B ----------------------------
G-----------4-                                         G -----------------------------
D----5------4--                                        D -----2---- 0-----------------
A----5------2--                                        A -----2---- 0-----------------
D----5 -------                                         D -----2---- 0-----------------


Breakdown :

Guitar 1                                                     Guitar 2 ( comes on after 4 )
E----------------------------------------------------    E ----------------------------------
B------------------------------------------------------  B-----------------------------------
G------------------------------------------------------- G --------10-----10 - 10 -10 -9--
D-----8-8880-08800--8-8880-08800--------------           D------------------------------
A-----8-8880-08800--8-8880-08800--------------           A ---------8--------8-8-8 - 7--
D-----8-8880-08800- 8-8880-08800-----------------        D ------------------------------------


Guitar 1 plays the riff 8 times 

then this 

E---------------------------
B---------------------------
G---------------------------
D---55555555 77777777
A---55555555 77777777
D---55555555 77777777-
 
Then 

E----------------------------
B----------------------------
G----------------------------
D---777-777-777--666-666-666----------------
A---999 999 999  444 444 444 ---------------
D---999-999-999--444-444-444------------------

After the last chorus the song ends on this riff 

E-----
B-----
G-----
D----- 2--- 0   5   4-- 2-  0  5
A----- 2--- 0   5  -2---2---0--5
D -----2--- 0  -5 ------2 - 0 --5                ( Listen to the cd for the rhythm )


That is the end !!!!! I think its all about there I tried my best and I think its got potential 
Tabbed by Mr A.Forknell 
How's my driving email and tell me what u think of my tab or any requests (dead_nerve_end@hotmail.com) 


Comments