Hell Is For Heroes - I Can Climb Mountains Chords & Tabs

 

I Can Climb Mountains Chords & Tabs

Hell Is For Heroes Chords & Tabs

Version: 1 Type: Bass Tab 0 ratings
1 star 2 stars 3 stars 4 stars 5 stars
comments

I Can Climb Mountains Bass Tab

   
#---------------------------------PLEASE NOTE----------------------------------#
#This file is the author's own work and represents their interpretation of the #
#song. You may only use this file for private study, scholarship, or research. #
#------------------------------------------------------------------------------#

Title: I Can Climb Mountains
Artist: Hell Is For Heroes
Album: no idea what it's called

Instrument: It's a bass tab, guess........

Tabbed by: Ali Mitchell (Tim watched and typed it out) thehotelfred@hotmail.com

Drop D Tuning: D,A,D,G

A fucking ace song!  The first bit is the guitar harmonics and isn't in the song,
but it sounds kick ass


-=Harmonics=-
G---7-7-7--5-5-5-
D--7-7-7--5-5-5--
A-7-7-7--5-5-5---
D----------------
[ Tab from: http://www.guitartabs.cc/tabs/h/hell_is_for_heroes/i_can_climb_mountains_btab.html ]

-Verse-
G---------------------------------------
D---------------------------------------
A---------------2222---------------2222-
D-0000000000000------4444444444444------
x2

-Chorus-
G---------------------------------------
D---------------------------------------
A------222------222------5555------555--
D-5555-----5555-----2222------2222------

-Bridge-
G---------------------------------------
D---------------------------------------
A---------------------------------------
D-8888-0-888-0-8888-0-888-555555--------

-Outro-
G---------------------------------------
D---------------------------------------
A-555555555-000000000000----------------
D---------------------------------------

-Order-
Harmonics
Verse x2
Chorus x2
Verse x2
Chorus x2
Bridge
Outro

Ali tabbed this but I (Tim)
Comments