Hell Is For Heroes - Folded Paper Figures Chords & Tabs

 

Folded Paper Figures Chords & Tabs

Hell Is For Heroes Chords & Tabs

Version: 1 Type: Tab 0 ratings
1 star 2 stars 3 stars 4 stars 5 stars
comments

Folded Paper Figures Tab

FOLDED PAPER FIGURES
Hell Is For Heroes
Transcribed by Stephen Jones 
e|------------------------|-----------------|------------------------|-----------------|
B|------------------------|-----------------|------------------------|-----------------|
G|10-10-10-10-10-10-10-10-|-9-9-9-9-9-9-9-9-|------------------------|-----------------|
D|-0--0--0--0--0--0--0--0-|-0-0-0-0-0-0-0-0-|10-10-10-10-10-10-10-10-|-9-9-9-9-9-9-9-9-|
A|------------------------|-----------------|-0--0--0--0--0--0--0--0-|-0-0-0-0-0-0-0-0-|
D|------------------------|-----------------|------------------------|-----------------|

 [Tom continues to play the intro riff]
e|-----------------|-----------------|-----------------|-----------------|
B|-----------------|-----------------|-----------------|-----------------|
G|-2-2-2-2-2-2-2-2-|-2-2-2-2-2-2-2-2-|-9-9-9-9-9-9-9-9-|-7-7-7-7-7-7-7-7-|
D|-0-0-0-0-0-0-0-0-|-0-0-0-0-0-0-0-0-|-7-7-7-7-7-7-7-7-|-5-5-5-5-5-5-5-5-|
A|-0-0-0-0-0-0-0-0-|-0-0-0-0-0-0-0-0-|-7-7-7-7-7-7-7-7-|-5-5-5-5-5-5-5-5-|
D|-0-0-0-0-0-0-0-0-|-0-0-0-0-0-0-0-0-|-7-7-7-7-7-7-7-7-|-5-5-5-5-5-5-5-5-|

e|-----------------|-----------------|-----------------|-----------------|
B|-----------------|-----------------|-----------------|-----------------|
G|-2-2-2-2-2-2-2-2-|-2-2-2-2-2-2-2-2-|-2-2-2-2-2-2-2-2-|-2-2-2-2-2-2-2-2-|
D|-0-0-0-0-0-0-0-0-|-0-0-0-0-0-0-0-0-|-2-2-2-2-2-2-2-2-|-2-2-2-2-2-2-2-2-|
A|-0-0-0-0-0-0-0-0-|-0-0-0-0-0-0-0-0-|-0-0-0-0-0-0-0-0-|-0-0-0-0-0-0-0-0-|
D|-0-0-0-0-0-0-0-0-|-0-0-0-0-0-0-0-0-|-----------------|-----------------|


 [both guitars]
e|-----------------|-----------------|-----------------|-----------------|
B|-----------------|-----------------|-----------------|-----------------|
G|-7-7-7-7-7-7-7---|-7-7-7-7-7-7-7---|-7-7-7-7-7-7-7---|-7-7-7-7-7-7-7---|
D|-7-7-7-7-7-7-7---|-7-7-7-7-7-7-7---|-7-7-7-7-7-7-7---|-7-7-7-7-7-7-7---|
A|-5-5-5-5-5-5-5---|-5-5-5-5-5-5-5---|-5-5-5-5-5-5-5---|-5-5-5-5-5-5-5---|
D|-----------------|-----------------|-----------------|-----------------|
  x1)Did you pledge allegiance,       Did you question the code...
  x2)Did you find out too late,       That you can't stop the flow?


e|-----------------|-----------------|-----------------|-----------------|
B|-----------------|-----------------|-----------------|-----------------|
G|-7-7-7-7-7-7-7---|-7-7-7-7-7-7-7---|-5-5-5-5-5-5-5---|-4-4-4-4-4-4-4---|
D|-7-7-7-7-7-7-7---|-7-7-7-7-7-7-7---|-x-x-x-x-x-x-x---|-x-x-x-x-x-x-x---|
A|-5-5-5-5-5-5-5---|-5-5-5-5-5-5-5---|-3-3-3-3-3-3-3---|-2-2-2-2-2-2-2---|
D|-----------------|-----------------|-----------------|-----------------|
  I need a will to live,              Something worth dying for,

e|-----------------|-----------------|-----------------|-----------------|
B|-----------------|-----------------|-----------------|-----------------|
G|-7-7-7-7-7-7-7---|-7-7-7-7-7-7-7---|-9-9-9-9-9-9-9---|-9-9-9-9-9-9-9---|
D|-7-7-7-7-7-7-7---|-7-7-7-7-7-7-7---|-x-x-x-x-x-x-x---|-x-x-x-x-x-x-x---|
A|-5-5-5-5-5-5-5---|-5-5-5-5-5-5-5---|-7-7-7-7-7-7-7---|-7-7-7-7-7-7-7---|
D|-----------------|-----------------|-----------------|-----------------|
  A force to fuel the fight,          And mask the fear...



e|-----------------|-----------------|-----------------|-----------------|
B|-----------------|-----------------|-----------------|-----------------|
G|-2-2-2-2-2-2-2-2-|-2-2-2-2-2-2-2-2-|-9-9-9-9-9-9-9-9-|-7-7-7-7-7-7-7-7-|
D|-0-0-0-0-0-0-0-0-|-0-0-0-0-0-0-0-0-|-7-7-7-7-7-7-7-7-|-5-5-5-5-5-5-5-5-|
A|-0-0-0-0-0-0-0-0-|-0-0-0-0-0-0-0-0-|-7-7-7-7-7-7-7-7-|-5-5-5-5-5-5-5-5-|
D|-0-0-0-0-0-0-0-0-|-0-0-0-0-0-0-0-0-|-7-7-7-7-7-7-7-7-|-5-5-5-5-5-5-5-5-|
  This is the new order,              Carved with a warm blooded sword,

e|-----------------|-----------------|-----------------|-----------------|
B|-----------------|-----------------|-----------------|-----------------|
G|-2-2-2-2-2-2-2-2-|-2-2-2-2-2-2-2-2-|-9-9-9-9-9-9-9-9-|-7-7-7-7-7-7-7-7-|
D|-0-0-0-0-0-0-0-0-|-0-0-0-0-0-0-0-0-|-7-7-7-7-7-7-7-7-|-5-5-5-5-5-5-5-5-|
A|-0-0-0-0-0-0-0-0-|-0-0-0-0-0-0-0-0-|-7-7-7-7-7-7-7-7-|-5-5-5-5-5-5-5-5-|
D|-0-0-0-0-0-0-0-0-|-0-0-0-0-0-0-0-0-|-7-7-7-7-7-7-7-7-|-5-5-5-5-5-5-5-5-|
  A cold comforting,                  New myth to justify the cause.

e|-----------------|-----------------|-----------------|-----------------|
B|-----------------|-----------------|-----------------|-----------------|
G|-2-2-2-2-2-2-2-2-|-2-2-2-2-2-2-2-2-|-9-9-9-9-9-9-9-9-|-7-7-7-7-7-7-7-7-|
D|-0-0-0-0-0-0-0-0-|-0-0-0-0-0-0-0-0-|-7-7-7-7-7-7-7-7-|-5-5-5-5-5-5-5-5-|
A|-0-0-0-0-0-0-0-0-|-0-0-0-0-0-0-0-0-|-7-7-7-7-7-7-7-7-|-5-5-5-5-5-5-5-5-|
D|-0-0-0-0-0-0-0-0-|-0-0-0-0-0-0-0-0-|-7-7-7-7-7-7-7-7-|-5-5-5-5-5-5-5-5-|
  And you're wondering,               With your neck on the line,

e|-----------------|-----------------|-----------------|-----------------|
B|-----------------|-----------------|-----------------|-----------------|
G|-2-2-2-2-2-2-2-2-|-2-2-2-2-2-2-2-2-|-2-2-2-2-2-2-2-2-|-2-2-2-2-2-2-2-2-|
D|-0-0-0-0-0-0-0-0-|-0-0-0-0-0-0-0-0-|-2-2-2-2-2-2-2-2-|-2-2-2-2-2-2-2-2-|
A|-0-0-0-0-0-0-0-0-|-0-0-0-0-0-0-0-0-|-0-0-0-0-0-0-0-0-|-0-0-0-0-0-0-0-0-|
D|-0-0-0-0-0-0-0-0-|-0-0-0-0-0-0-0-0-|-----------------|-----------------|
  Is it justice or crime,             The guillotine or the crown?


 [both guitars]
e|-----------------|-----------------|-----------------|-----------------|
B|-----------------|-----------------|-----------------|-----------------|
G|-7-7-7-7-7-7-7---|-7-7-7-7-7-7-7---|-7-7-7-7-7-7-7---|-7-7-7-7-7-7-7---|
D|-7-7-7-7-7-7-7---|-7-7-7-7-7-7-7---|-7-7-7-7-7-7-7---|-7-7-7-7-7-7-7---|
A|-5-5-5-5-5-5-5---|-5-5-5-5-5-5-5---|-5-5-5-5-5-5-5---|-5-5-5-5-5-5-5---|
D|-----------------|-----------------|-----------------|-----------------|
  x1)Did you reshape your will,       Just to fit with the fold,
  x2)Did you trade your conscience,   For a place to belong?

[ Tab from: http://www.guitartabs.cc/tabs/h/hell_is_for_heroes/folded_paper_figures_tab.html ]

e|-----------------|-----------------|-----------------|-----------------|
B|-----------------|-----------------|-----------------|-----------------|
G|-7-7-7-7-7-7-7---|-7-7-7-7-7-7-7---|-5-5-5-5-5-5-5---|-4-4-4-4-4-4-4---|
D|-7-7-7-7-7-7-7---|-7-7-7-7-7-7-7---|-x-x-x-x-x-x-x---|-x-x-x-x-x-x-x---|
A|-5-5-5-5-5-5-5---|-5-5-5-5-5-5-5---|-3-3-3-3-3-3-3---|-2-2-2-2-2-2-2---|
D|-----------------|-----------------|-----------------|-----------------|
  It's just a point of view,          A key to lock the chain,

e|-----------------|-----------------|-----------------|-----------------|
B|-----------------|-----------------|-----------------|-----------------|
G|-7-7-7-7-7-7-7---|-7-7-7-7-7-7-7---|-9-9-9-9-9-9-9---|-9-9-9-9-9-9-9---|
D|-7-7-7-7-7-7-7---|-7-7-7-7-7-7-7---|-x-x-x-x-x-x-x---|-x-x-x-x-x-x-x---|
A|-5-5-5-5-5-5-5---|-5-5-5-5-5-5-5---|-7-7-7-7-7-7-7---|-7-7-7-7-7-7-7---|
D|-----------------|-----------------|-----------------|-----------------|
  Come join the circle now,           We're fitting in...



e|-----------------|-----------------|-----------------|-----------------|
B|-----------------|-----------------|-----------------|-----------------|
G|-2-2-2-2-2-2-2-2-|-2-2-2-2-2-2-2-2-|-9-9-9-9-9-9-9-9-|-7-7-7-7-7-7-7-7-|
D|-0-0-0-0-0-0-0-0-|-0-0-0-0-0-0-0-0-|-7-7-7-7-7-7-7-7-|-5-5-5-5-5-5-5-5-|
A|-0-0-0-0-0-0-0-0-|-0-0-0-0-0-0-0-0-|-7-7-7-7-7-7-7-7-|-5-5-5-5-5-5-5-5-|
D|-0-0-0-0-0-0-0-0-|-0-0-0-0-0-0-0-0-|-7-7-7-7-7-7-7-7-|-5-5-5-5-5-5-5-5-|
  We paint the walls with our         five pointed flag burning star,

e|-----------------|-----------------|-----------------|-----------------|
B|-----------------|-----------------|-----------------|-----------------|
G|-2-2-2-2-2-2-2-2-|-2-2-2-2-2-2-2-2-|-9-9-9-9-9-9-9-9-|-7-7-7-7-7-7-7-7-|
D|-0-0-0-0-0-0-0-0-|-0-0-0-0-0-0-0-0-|-7-7-7-7-7-7-7-7-|-5-5-5-5-5-5-5-5-|
A|-0-0-0-0-0-0-0-0-|-0-0-0-0-0-0-0-0-|-7-7-7-7-7-7-7-7-|-5-5-5-5-5-5-5-5-|
D|-0-0-0-0-0-0-0-0-|-0-0-0-0-0-0-0-0-|-7-7-7-7-7-7-7-7-|-5-5-5-5-5-5-5-5-|
  It's a motion                       to justify our place again,

e|-----------------|-----------------|-----------------|-----------------|
B|-----------------|-----------------|-----------------|-----------------|
G|-2-2-2-2-2-2-2-2-|-2-2-2-2-2-2-2-2-|-9-9-9-9-9-9-9-9-|-7-7-7-7-7-7-7-7-|
D|-0-0-0-0-0-0-0-0-|-0-0-0-0-0-0-0-0-|-7-7-7-7-7-7-7-7-|-5-5-5-5-5-5-5-5-|
A|-0-0-0-0-0-0-0-0-|-0-0-0-0-0-0-0-0-|-7-7-7-7-7-7-7-7-|-5-5-5-5-5-5-5-5-|
D|-0-0-0-0-0-0-0-0-|-0-0-0-0-0-0-0-0-|-7-7-7-7-7-7-7-7-|-5-5-5-5-5-5-5-5-|
  The star is still shining,          but it died long ago,

e|-----------------|-----------------|-----------------|-----------------|
B|-----------------|-----------------|-----------------|-----------------|
G|-2-2-2-2-2-2-2-2-|-2-2-2-2-2-2-2-2-|-2-2-2-2-2-2-2-2-|-2-2-2-2-2-2-2-2-|
D|-0-0-0-0-0-0-0-0-|-0-0-0-0-0-0-0-0-|-2-2-2-2-2-2-2-2-|-2-2-2-2-2-2-2-2-|
A|-0-0-0-0-0-0-0-0-|-0-0-0-0-0-0-0-0-|-0-0-0-0-0-0-0-0-|-0-0-0-0-0-0-0-0-|
D|-0-0-0-0-0-0-0-0-|-0-0-0-0-0-0-0-0-|-----------------|-----------------|
  And I don't let it go,              And I don't let it go.



e|---------5-5-5-5-|---------5-5-5-5-|---------5-5-5-5-|---------5-5-5-5-|
B|---------5-5-5-5-|---------5-5-5-5-|---------5-5-5-5-|---------5-5-5-5-|
G|---------5-5-5-5-|---------5-5-5-5-|---------5-5-5-5-|---------5-5-5-5-|
D|---------5-5-5-5-|---------5-5-5-5-|---------5-5-5-5-|---------5-5-5-5-|
A|---------5-5-5-5-|---------5-5-5-5-|---------5-5-5-5-|---------5-5-5-5-|
D|-0-0-0-0---------|-0-0-0-0---------|-0-0-0-0---------|-0-0-0-0---------|
  (The open low D's here are muted)


e|---------5-5-5-5-|---------5-5-5-5-|---------5-5-5-5-|---------5-5-5-5-|
B|---------5-5-5-5-|---------5-5-5-5-|---------5-5-5-5-|---------5-5-5-5-|
G|---------5-5-5-5-|---------5-5-5-5-|---------5-5-5-5-|---------5-5-5-5-|
D|---------5-5-5-5-|---------5-5-5-5-|---------5-5-5-5-|---------5-5-5-5-|
A|---------5-5-5-5-|---------5-5-5-5-|---------5-5-5-5-|---------5-5-5-5-|
D|-0-0-0-0---------|-0-0-0-0---------|-0-0-0-0---------|-0-0-0-0---------|
  x1)I bid you welcome,               The door is open,
  x2)A gathering of                   The uninvited,
  x3)I bid you welcome,               The door is open,
  x4)A gathering,                     This is call to break the chain!!



e|-----------------|-----------------|-----------------|-----------------|
B|-----------------|-----------------|-----------------|-----------------|
G|-2-2-2-2-2-2-2-2-|-2-2-2-2-2-2-2-2-|-9-9-9-9-9-9-9-9-|-7-7-7-7-7-7-7-7-|
D|-0-0-0-0-0-0-0-0-|-0-0-0-0-0-0-0-0-|-7-7-7-7-7-7-7-7-|-5-5-5-5-5-5-5-5-|
A|-0-0-0-0-0-0-0-0-|-0-0-0-0-0-0-0-0-|-7-7-7-7-7-7-7-7-|-5-5-5-5-5-5-5-5-|
D|-0-0-0-0-0-0-0-0-|-0-0-0-0-0-0-0-0-|-7-7-7-7-7-7-7-7-|-5-5-5-5-5-5-5-5-|
  x1)This is                      the call           to break down the chain!
  x2)This is                      the call           to break down the chain!

e|-----------------|-----------------|-----------------|-----------------|
B|-----------------|-----------------|-----------------|-----------------|
G|-2-2-2-2-2-2-2-2-|-2-2-2-2-2-2-2-2-|-9-9-9-9-9-9-9-9-|-7-7-7-7-7-7-7-7-|
D|-0-0-0-0-0-0-0-0-|-0-0-0-0-0-0-0-0-|-7-7-7-7-7-7-7-7-|-5-5-5-5-5-5-5-5-|
A|-0-0-0-0-0-0-0-0-|-0-0-0-0-0-0-0-0-|-7-7-7-7-7-7-7-7-|-5-5-5-5-5-5-5-5-|
D|-0-0-0-0-0-0-0-0-|-0-0-0-0-0-0-0-0-|-7-7-7-7-7-7-7-7-|-5-5-5-5-5-5-5-5-|
  x3)And I don't let it go,           And I don't let it go,
  x4)And I don't let it go,           And I don't let it...



e|-----------------|-----------------|-----------------|-----------------|
B|-----------------|-----------------|-----------------|-----------------|
G|-7-7-7-7-7-7-7---|-7-7-7-7-7-7-7---|-7-7-7-7-7-7-7---|-7-7-7-7-7-7-7---|
D|-7-7-7-7-7-7-7---|-7-7-7-7-7-7-7---|-7-7-7-7-7-7-7---|-7-7-7-7-7-7-7---|
A|-5-5-5-5-5-5-5---|-5-5-5-5-5-5-5---|-5-5-5-5-5-5-5---|-5-5-5-5-5-5-5---|
D|-----------------|-----------------|-----------------|-----------------|
  We paint the walls!                 We paint the walls!

e|-----------------|-----------------|-----------------|-----------------|
B|-----------------|-----------------|-----------------|-----------------|
G|-7-7-7-7-7-7-7---|-7-7-7-7-7-7-7---|-7-7-7-7-7-7-7---|-7-7-7-7-7-7-7---|
D|-7-7-7-7-7-7-7---|-7-7-7-7-7-7-7---|-7-7-7-7-7-7-7---|-7-7-7-7-7-7-7---|
A|-5-5-5-5-5-5-5---|-5-5-5-5-5-5-5---|-5-5-5-5-5-5-5---|-5-5-5-5-5-5-5---|
D|-----------------|-----------------|-----------------|-----------------|
  We paint the walls!                 We paint the walls!
Comments