Hell Is For Heroes - Five Kids Go Chords & Tabs

 

Five Kids Go Chords & Tabs

Hell Is For Heroes Chords & Tabs

Version: 1 Type: Tab 0 ratings
1 star 2 stars 3 stars 4 stars 5 stars
comments

Five Kids Go Tab

FIVE KIDS GO
Hell Is For Heroes
Transcribed by Stephen Jones 

{NOTE: Both Tom and Will's guitars are almost always tuned to DADGBE ('drop D' tuning)!}

 [on the album this has a modulation effect on it]
e|-----------------|-----------------|
B|-----------------|-----------------|
G|-2-4-4-4-2-4-4-4-|-2-4-4-4-2-4-4-4-|
D|-0-x-x-x-0-x-x-x-|-0-2-2-2-0-2-2-2-|
A|-0-2-2-2-0-2-2-2-|-0-2-2-2-0-2-2-2-|
D|-----------------|-----------------|


e|-----------------|-----------------|-----------------|-----------------|
B|-----------------|-----------------|-----------------|-----------------|
G|-4-4-4-4-4-4-4-4-|-4-4-4-4-4-4-4-4-|-7-7--7-7--7-7---|-7-7--7-7--7-7---|
D|-x-x-x-x-x-x-x-x-|-x-x-x-x-x-x-x-x-|-5-5--5-5--5-5---|-5-5--5-5--5-5---|
A|-2-2-2-2-2-2-2-2-|-2-2-2-2-2-2-2-2-|-5-5--5-5--5-5---|-5-5--5-5--5-5---|
D|-----------------|-----------------|-5-5--5-5--5-5---|-5-5--5-5--5-5---|


e|-----------------|-----------------|-----------------|-----------------|
B|-----------------|-----------------|-----------------|-----------------|
G|-4-4-4-4---------|-----------------|-7-7--7-7--7-7---|-7-7--7-7--7-7---|
D|-x-x-x-x---------|-----------------|-5-5--5-5--5-5---|-5-5--5-5--5-5---|
A|-2-2-2-2-(STOP)--|-----------------|-5-5--5-5--5-5---|-5-5--5-5--5-5---|
D|-----------------|-----------------|-5-5--5-5--5-5---|-5-5--5-5--5-5---|
          Do  you  have  the  time to kill?    Let's go, head for the shore, 

e|-----------------|-----------------|-----------------|-----------------|
B|-----------------|-----------------|-----------------|-----------------|
G|-4-4-4-4-4-4-4-4-|-4-4-4-4-4-4-4-4-|-7-7--7-7--7-7---|-7-7--7-7--7-7---|
D|-x-x-x-x-x-x-x-x-|-x-x-x-x-x-x-x-x-|-5-5--5-5--5-5---|-5-5--5-5--5-5---|
A|-2-2-2-2-2-2-2-2-|-2-2-2-2-2-2-2-2-|-5-5--5-5--5-5---|-5-5--5-5--5-5---|
D|-----------------|-----------------|-5-5--5-5--5-5---|-5-5--5-5--5-5---|
  Do you have the will to jump        down from the top of the world?

e|-----------------|-----------------|-----------------|-----------------|
B|-----------------|-----------------|-----------------|-----------------|
G|-4-4-4-4-4-4-4-4-|-4-4-4-4-4-4-4-4-|-7-7--7-7--7-7---|-7-7--7-7--7-7---|
D|-x-x-x-x-x-x-x-x-|-x-x-x-x-x-x-x-x-|-5-5--5-5--5-5---|-5-5--5-5--5-5---|
A|-2-2-2-2-2-2-2-2-|-2-2-2-2-2-2-2-2-|-5-5--5-5--5-5---|-5-5--5-5--5-5---|
D|-----------------|-----------------|-5-5--5-5--5-5---|-5-5--5-5--5-5---|
  If it's easier to burn,             Tie me up on a stake...


e|-----------------|-----------------|-----------------|-----------------|
B|-----------------|-----------------|-----------------|-----------------|
G|-4-4-4-4-4-4-----|-4-4-4-4-4-4-----|-4-4-4-4-4-4-----|-4-4-4-4-4-4-----|
D|-x-x-x-x-x-x-----|-x-x-x-x-x-x-----|-x-x-x-x-x-x-----|-x-x-x-x-x-x-----|
A|-2-2-2-2-2-2-----|-2-2-2-2-2-2-----|-2-2-2-2-2-2-----|-2-2-2-2-2-2-----|
D|-----------------|-----------------|-----------------|-----------------|



e|-----------------|-----------------|-----------------|-----------------|
B|-----------------|-----------------|-----------------|-2-2-2-2-2-2-2---|
G|-7-7-7-7-7-7-7---|-7-7-7-7-7-7-7---|-2-2-2-2-2-2-2---|-2-2-2-2-2-2-2---|
D|-5-5-5-5-5-5-5---|-5-5-5-5-5-5-5---|-0-0-0-0-0-0-0---|-2-2-2-2-2-2-2---|
A|-5-5-5-5-5-5-5---|-5-5-5-5-5-5-5---|-0-0-0-0-0-0-0---|-0-0-0-0-0-0-0---|
D|-5-5-5-5-5-5-5---|-5-5-5-5-5-5-5---|-0-0-0-0-0-0-0---|-----------------|
  Empty     highroads     are         calling,          calling,

e|-----------------|-----------------|-----------------|-----------------|
B|-----------------|-----------------|-----------------|---2-2-2---2-2-2-|
G|-7-7-7-7-7-7-7---|-7-7-7-7-7-7-7---|-2-2-2-2-2-2-2---|---2-2-2---2-2-2-|
D|-5-5-5-5-5-5-5---|-5-5-5-5-5-5-5---|-0-0-0-0-0-0-0---|---2-2-2---2-2-2-|
A|-5-5-5-5-5-5-5---|-5-5-5-5-5-5-5---|-0-0-0-0-0-0-0---|---0-0-0---0-0-0-|
D|-5-5-5-5-5-5-5---|-5-5-5-5-5-5-5---|-0-0-0-0-0-0-0---|-----------------|  
       My           defences            slowly          breaking down.

<...while Tom plays this:>           
e|-----------------|-----------------|------------------------|-----------------|
B|-----------------|-----------------|------------------------|-----------------|
G|-4-4-4-4-6-6-6-6-|-7-7-7-7-9-9-9-9-|14-14-14-14-14-14-14-14-|-7-7-7-7-5-5-5-5-|
D|-x-x-x-x-x-x-x-x-|-x-x-x-x-x-x-x-x-|-x--x--x--x--x--x--x--x-|-x-x-x-x-x-x-x-x-|
A|-2-2-2-2-4-4-4-4-|-5-5-5-5-7-7-7-7-|12-12-12-12-10 10 10 10-|-9-9-9-9-7-7-7-7-|
D|-----------------|-----------------|------------------------|-----------------|
   Emp  -  ty       high - roads are  call   -    ing,          call -  ing,

e|-----------------|-----------------|-----------------|-----------------|
B|-----------------|-----------------|-----------------|-----------------|
G|-4-4-4-4-6-6-6-6-|-7-7-7-7-9-9-9-9-|-9-9-9-9-9-9-9-9-|---7-7-7---7-7-7-|
D|-x-x-x-x-x-x-x-x-|-x-x-x-x-x-x-x-x-|-x-x-x-x-x-x-x-x-|---5-5-5---5-5-5-|
A|-2-2-2-2-4-4-4-4-|-5-5-5-5-7-7-7-7-|-7-7-7-7-7-7-7-7-|---5-5-5---5-5-5-|
D|-----------------|-----------------|-----------------|---5-5-5---5-5-5-|
  My       de   -   fen  -   ces        slowly                   breaking down...



e|-----------------|-----------------|-----------------|-----------------|
B|-----------------|-----------------|-----------------|-----------------|
G|-4-4-4-4-4-4-4-4-|-4-4-4-4-4-4-4-4-|-7-7--7-7--7-7---|-7-7--7-7--7-7---|
D|-x-x-x-x-x-x-x-x-|-x-x-x-x-x-x-x-x-|-5-5--5-5--5-5---|-5-5--5-5--5-5---|
A|-2-2-2-2-2-2-2-2-|-2-2-2-2-2-2-2-2-|-5-5--5-5--5-5---|-5-5--5-5--5-5---|
D|-----------------|-----------------|-5-5--5-5--5-5---|-5-5--5-5--5-5---|


e|-----------------|-----------------|-----------------|-----------------|
B|-----------------|-----------------|-----------------|-----------------|
G|-4-4-4-4---------|-----------------|-7-7--7-7--7-7---|-7-7--7-7--7-7---|
D|-x-x-x-x---------|-----------------|-5-5--5-5--5-5---|-5-5--5-5--5-5---|
A|-2-2-2-2-(STOP)--|-----------------|-5-5--5-5--5-5---|-5-5--5-5--5-5---|
D|-----------------|-----------------|-5-5--5-5--5-5---|-5-5--5-5--5-5---|
          Fuck these headstrong scheming plans,  Let's go, head for the 

e|-----------------|-----------------|-----------------|-----------------|
B|-----------------|-----------------|-----------------|-----------------|
G|-4-4-4-4-4-4-4-4-|-4-4-4-4-4-4-4-4-|-7-7--7-7--7-7---|-7-7--7-7--7-7---|
D|-x-x-x-x-x-x-x-x-|-x-x-x-x-x-x-x-x-|-5-5--5-5--5-5---|-5-5--5-5--5-5---|
A|-2-2-2-2-2-2-2-2-|-2-2-2-2-2-2-2-2-|-5-5--5-5--5-5---|-5-5--5-5--5-5---|
D|-----------------|-----------------|-5-5--5-5--5-5---|-5-5--5-5--5-5---|
  shore, On my last legs I'll make a stand and jump from the top of the 

e|-----------------|-----------------|-----------------|-----------------|
B|-----------------|-----------------|-----------------|-----------------|
G|-4-4-4-4-4-4-4-4-|-4-4-4-4-4-4-4-4-|-7-7--7-7--7-7---|-7-7--7-7--7-7---|
D|-x-x-x-x-x-x-x-x-|-x-x-x-x-x-x-x-x-|-5-5--5-5--5-5---|-5-5--5-5--5-5---|
A|-2-2-2-2-2-2-2-2-|-2-2-2-2-2-2-2-2-|-5-5--5-5--5-5---|-5-5--5-5--5-5---|
D|-----------------|-----------------|-5-5--5-5--5-5---|-5-5--5-5--5-5---|
   world,         If it's easier to    burn,              Tie me up on a... 

e|-----------------|-----------------|-----------------|-----------------|
B|-----------------|-----------------|-----------------|-----------------|
G|-4-4-4-4-4-4-----|-4-4-4-4-4-4-----|-4-4-4-4-4-4-----|-4-4-4-4-4-4-----|
D|-x-x-x-x-x-x-----|-x-x-x-x-x-x-----|-x-x-x-x-x-x-----|-x-x-x-x-x-x-----|
A|-2-2-2-2-2-2-----|-2-2-2-2-2-2-----|-2-2-2-2-2-2-----|-2-2-2-2-2-2-----|
D|-----------------|-----------------|-----------------|-----------------|
  stake,  Fire       is    my          on -  ly          friend now...


[Will]
e|-----------------|-----------------|-----------------|-----------------|
B|-----------------|-----------------|-----------------|-2-2-2-2-2-2-2---|
G|-7-7-7-7-7-7-7---|-7-7-7-7-7-7-7---|-2-2-2-2-2-2-2---|-2-2-2-2-2-2-2---|
D|-5-5-5-5-5-5-5---|-5-5-5-5-5-5-5---|-0-0-0-0-0-0-0---|-2-2-2-2-2-2-2---|
A|-5-5-5-5-5-5-5---|-5-5-5-5-5-5-5---|-0-0-0-0-0-0-0---|-0-0-0-0-0-0-0---|
D|-5-5-5-5-5-5-5---|-5-5-5-5-5-5-5---|-0-0-0-0-0-0-0---|-----------------|
  Empty     highroads     are         calling,          calling,

e|-----------------|-----------------|-----------------|-----------------|
B|-----------------|-----------------|-----------------|-2-2-2-2-2-2-2-2-|
G|-7-7-7-7-7-7-7---|-7-7-7-7-7-7-7---|-2-2-2-2-2-2-2---|-2-2-2-2-2-2-2-2-|
D|-5-5-5-5-5-5-5---|-5-5-5-5-5-5-5---|-0-0-0-0-0-0-0---|-2-2-2-2-2-2-2-2-|
A|-5-5-5-5-5-5-5---|-5-5-5-5-5-5-5---|-0-0-0-0-0-0-0---|-0-0-0-0-2-0-2-2-|
D|-5-5-5-5-5-5-5---|-5-5-5-5-5-5-5---|-0-0-0-0-0-0-0---|-----------------|  
       My           defences            slowly          breaking,

e|-----------------|-----------------|-----------------|-----------------|
B|-----------------|-----------------|-----------------|-2-2-2-2-2-2-2-2-|
G|-7-7-7-7-7-7-7---|-7-7-7-7-7-7-7---|-2-2-2-2-2-2-2---|-2-2-2-2-2-2-2-2-|
D|-5-5-5-5-5-5-5---|-5-5-5-5-5-5-5---|-0-0-0-0-0-0-0---|-2-2-2-2-2-2-2-2-|
A|-5-5-5-5-5-5-5---|-5-5-5-5-5-5-5---|-0-0-0-0-0-0-0---|-0-0-0-0-0-0-0-0-|
D|-5-5-5-5-5-5-5---|-5-5-5-5-5-5-5---|-0-0-0-0-0-0-0---|-----------------|  
   Fuck  your       well    trained         golden         handshakes,

e|-----------------|-----------------|-----------------|-----------------|
B|-----------------|-----------------|-----------------|-2-2-2-2-2-2-2---|
G|-7-7-7-7-7-7-7---|-7-7-7-7-7-7-7---|-2-2-2-2-2-2-2---|-2-2-2-2-2-2-2---|
D|-5-5-5-5-5-5-5---|-5-5-5-5-5-5-5---|-0-0-0-0-0-0-0---|-2-2-2-2-2-2-2---|
A|-5-5-5-5-5-5-5---|-5-5-5-5-5-5-5---|-0-0-0-0-0-0-0---|-0-0-0-0-0-0-0---|
D|-5-5-5-5-5-5-5---|-5-5-5-5-5-5-5---|-0-0-0-0-0-0-0---|-----------------|
    All   we         need    is          space   to      roam...


[Tom]
e|-----------------|-----------------|------------------------|-----------------|
B|-----------------|-----------------|------------------------|-----------------|
G|-4-4-4-4-6-6-6-6-|-7-7-7-7-9-9-9-9-|14-14-14-14-14-14-14-14-|-7-7-7-7-5-5-5-5-|
D|-x-x-x-x-x-x-x-x-|-x-x-x-x-x-x-x-x-|-x--x--x--x--x--x--x--x-|-x-x-x-x-x-x-x-x-|
A|-2-2-2-2-4-4-4-4-|-5-5-5-5-7-7-7-7-|12-12-12-12-10 10 10 10-|-9-9-9-9-7-7-7-7-|
D|-----------------|-----------------|------------------------|-----------------|
   Emp  -  ty       high - roads are  call   -    ing,          call -  ing,

e|-----------------|-----------------|-----------------|------------------------|
B|-----------------|-----------------|-----------------|------------------------|
G|-4-4-4-4-6-6-6-6-|-7-7-7-7-9-9-9-9-|-9-9-9-9-9-9-9-9-|11-11-11-11-11-11-11-11-|
D|-x-x-x-x-x-x-x-x-|-x-x-x-x-x-x-x-x-|-x-x-x-x-x-x-x-x-|-x--x--x--x--x--x--x--x-|
A|-2-2-2-2-4-4-4-4-|-5-5-5-5-7-7-7-7-|-7-7-7-7-7-7-7-7-|-9--9--9--9--9--9--9--9-|
D|-----------------|-----------------|-----------------|------------------------|
  My       de   -   fen  -   ces            slowly             breaking 
[ Tab from: http://www.guitartabs.cc/tabs/h/hell_is_for_heroes/five_kids_go_tab.html ]
e|-----------------|-----------------|------------------------|-----------------|
B|-----------------|-----------------|------------------------|-----------------|
G|-4-4-4-4-6-6-6-6-|-7-7-7-7-9-9-9-9-|14-14-14-14-14-14-14-14-|-7-7-7-7-5-5-5-5-|
D|-x-x-x-x-x-x-x-x-|-x-x-x-x-x-x-x-x-|-x--x--x--x--x--x--x--x-|-x-x-x-x-x-x-x-x-|
A|-2-2-2-2-4-4-4-4-|-5-5-5-5-7-7-7-7-|12-12-12-12-10 10 10 10-|-9-9-9-9-7-7-7-7-|
D|-----------------|-----------------|------------------------|-----------------| 
    Fuck    your      well   trained     gol  -    den         hand  - shakes,

e|-----------------|-----------------|-----------------|------------------------|
B|-----------------|-----------------|-----------------|------------------------|
G|-4-4-4-4-6-6-6-6-|-7-7-7-7-9-9-9-9-|-9-9-9-9-9-9-9-9-|11-11-11-11-11-11-11-11-|
D|-x-x-x-x-x-x-x-x-|-x-x-x-x-x-x-x-x-|-x-x-x-x-x-x-x-x-|-x--x--x--x--x--x--x--x-|
A|-2-2-2-2-4-4-4-4-|-5-5-5-5-7-7-7-7-|-7-7-7-7-7-7-7-7-|-9--9--9--9--9--9--9--9-|
D|-----------------|-----------------|-----------------|------------------------|
     All     we       need    is         space    to      roam,

 [Both guitars]
e|-----------------|-----------------|-----------------|-----------------|
B|-----------------|-----------------|-----------------|-----2-2-2-2-2---|
G|-7-7-7-7-7-7-7---|-7-7-7-7-7-7-7---|-2-2-2-2-2-2-----|-----2-2-2-2-2---|
D|-5-5-5-5-5-5-5---|-5-5-5-5-5-5-5---|-0-0-0-0-0-0-----|-----2-2-2-2-2---|
A|-5-5-5-5-5-5-5---|-5-5-5-5-5-5-5---|-0-0-0-0-0-0(STOP)-----0-0-0-0-0---|
D|-5-5-5-5-5-5-5---|-5-5-5-5-5-5-5---|-0-0-0-0-0-0-----|-----------------|
   All    we         have    left           is  self     control,

e|-----------------|-----------------|-----------------|-----------------|
B|-----------------|-----------------|-----------------|-----2-2-2-2-2---|
G|-7-7-7-7-7-7-7---|-7-7-7-7-7-7-7---|-2-2-2-2-2-2-----|-----2-2-2-2-2---|
D|-5-5-5-5-5-5-5---|-5-5-5-5-5-5-5---|-0-0-0-0-0-0-----|-----2-2-2-2-2---|
A|-5-5-5-5-5-5-5---|-5-5-5-5-5-5-5---|-0-0-0-0-0-0(STOP)-----0-0-0-0-0---|
D|-5-5-5-5-5-5-5---|-5-5-5-5-5-5-5---|-0-0-0-0-0-0-----|-----------------|  
   All    we         have    to        do   is  just     pack up and go!


[Will] - {played with a clean sound} - (played twice)
e|----------|----------|----------|----------|-9--------|-9--------|-12-------|-9--------|
B|-10-------|-10-------|-10-------|-10-------|---10-----|---10-----|----11----|---10-----|
G|----11----|----11----|----11----|----11----|------11--|------11--|-------10-|------11--|
D|-------12-|-------12-|-------12-|-------12-|----------|----------|----------|----------|
A|----------|----------|----------|----------|----------|----------|----------|----------|
D|----------|----------|----------|----------|----------|----------|----------|----------|

[Tom] - {played with a clean sound} - (played twice)
e|----------|----------|----------|----------|----------|----------|----------|----------|
B|----------|----------|----------|----------|----------|----------|----------|----------|
G|--4--6--6-|--4--6--6-|--4--6--6-|--3--3--3-|--4--6--6-|--4--6--6-|--4--6--6-|--3--3--3-|
D|--0--0--0-|--0--0--0-|--0--0--0-|--0--0--0-|--0--0--0-|--0--0--0-|--0--0--0-|--0--0--0-|
A|----------|----------|----------|----------|----------|----------|----------|----------|
D|----------|----------|----------|----------|----------|----------|----------|----------|


 [they more or less swap parts!]
[Will] - {distortion back on} - (played twice)
e|----------|----------|----------|----------|----------|----------|----------|----------|
B|----------|----------|----------|----------|----------|----------|----------|----------|
G|--4--6--6-|--4--6--6-|--4--6--6-|--3--3--3-|--4--6--6-|--4--6--6-|--4--6--6-|--3--3--3-|
D|--0--0--0-|--0--0--0-|--0--0--0-|--0--0--0-|--0--0--0-|--0--0--0-|--0--0--0-|--0--0--0-|
A|----------|----------|----------|----------|----------|----------|----------|----------|
D|----------|----------|----------|----------|----------|----------|----------|----------|
  (this is played muted)

[Tom] - {distortion back on} - (played twice)
e|----------|----------|----------|----------|--9--9--9-|--9--9--9-|-12-12-12-|-12-12-12-|
B|-10-10-10-|-10-10-10-|-10-10-10-|-10-10-10-|-10-10-10-|-10-10-10-|-11-11-11-|-11-11-11-|
G|-11-11-11-|-11-11-11-|-11-11-11-|-11-11-11-|-11-11-11-|-11-11-11-|-10-10-10-|-10-10-10-|
D|-12-12-12-|-12-12-12-|-12-12-12-|-12-12-12-|----------|----------|----------|----------|
A|----------|----------|----------|----------|----------|----------|----------|----------|
D|----------|----------|----------|----------|----------|----------|----------|----------|
  (this is played muted)


[Will]
e|-----------------|-----------------|-----------------|-----------------|
B|-----------------|-----------------|-----------------|-2-2-2-2-2-2-2---|
G|-7-7-7-7-7-7-7---|-7-7-7-7-7-7-7---|-2-2-2-2-2-2-2---|-2-2-2-2-2-2-2---|
D|-5-5-5-5-5-5-5---|-5-5-5-5-5-5-5---|-0-0-0-0-0-0-0---|-2-2-2-2-2-2-2---|
A|-5-5-5-5-5-5-5---|-5-5-5-5-5-5-5---|-0-0-0-0-0-0-0---|-0-0-0-0-0-0-0---|
D|-5-5-5-5-5-5-5---|-5-5-5-5-5-5-5---|-0-0-0-0-0-0-0---|-----------------|
   Catch   me   falling   if    you    can,  cut  your  ties and flush them

e|-----------------|-----------------|-----------------|-----------------|
B|-----------------|-----------------|-----------------|---2-2-2---2-2-2-|
G|-7-7-7-7-7-7-7---|-7-7-7-7-7-7-7---|-2-2-2-2-2-2-2---|---2-2-2---2-2-2-|
D|-5-5-5-5-5-5-5---|-5-5-5-5-5-5-5---|-0-0-0-0-0-0-0---|---2-2-2---2-2-2-|
A|-5-5-5-5-5-5-5---|-5-5-5-5-5-5-5---|-0-0-0-0-0-0-0---|---0-0-0---0-2-2-|
D|-5-5-5-5-5-5-5---|-5-5-5-5-5-5-5---|-0-0-0-0-0-0-0---|-----------------|  
   down   'cause we're taking back the reign, take control  of  time  and

e|-----------------|-----------------|-----------------|-----------------|
B|-----------------|-----------------|-----------------|-2-2-2-2-2-2-2-2-|
G|-7-7-7-7-7-7-7---|-7-7-7-7-7-7-7---|-2-2-2-2-2-2-2---|-2-2-2-2-2-2-2-2-|
D|-5-5-5-5-5-5-5---|-5-5-5-5-5-5-5---|-0-0-0-0-0-0-0---|-2-2-2-2-2-2-2-2-|
A|-5-5-5-5-5-5-5---|-5-5-5-5-5-5-5---|-0-0-0-0-0-0-0---|-0-0-0-0-0-0-2-2-|
D|-5-5-5-5-5-5-5---|-5-5-5-5-5-5-5---|-0-0-0-0-0-0-0---|-----------------|  
   Emp  -  ty       high - roads are  call   -    ing,    call -  ing,

e|-----------------|-----------------|-----------------|-----------------|
B|-----------------|-----------------|-----------------|-----2-2-2-2-2---|
G|-7-7-7-7-7-7-7---|-7-7-7-7-7-7-7---|-2-2-2-2-2-2-----|-----2-2-2-2-2---|
D|-5-5-5-5-5-5-5---|-5-5-5-5-5-5-5---|-0-0-0-0-0-0-----|-----2-2-2-2-2---|
A|-5-5-5-5-5-5-5---|-5-5-5-5-5-5-5---|-0-0-0-0-0-0(STOP)-----0-0-0-0-0---|
D|-5-5-5-5-5-5-5---|-5-5-5-5-5-5-5---|-0-0-0-0-0-0-----|-----------------|
    My      de -      fen -   ces         slowly         breaking,  'cause

e|-----------------|-----------------|-----------------|-----------------|
B|-----------------|-----------------|-----------------|-2-2-2-2-2-2-2-2-|
G|-7-7-7-7-7-7-7---|-7-7-7-7-7-7-7---|-2-2-2-2-2-2-2---|-2-2-2-2-2-2-2-2-|
D|-5-5-5-5-5-5-5---|-5-5-5-5-5-5-5---|-0-0-0-0-0-0-0---|-2-2-2-2-2-2-2-2-|
A|-5-5-5-5-5-5-5---|-5-5-5-5-5-5-5---|-0-0-0-0-0-0-0---|-0-0-0-0-0-0-0-0-|
D|-5-5-5-5-5-5-5---|-5-5-5-5-5-5-5---|-0-0-0-0-0-0-0---|-----------------| 
    we      were      bought    by      gol  -  den      hand - shakes

e|-----------------|-----------------|-----------------|
B|-----------------|-----------------|-----------------|
G|-7-7-7-7-7-7-7---|-7-7-7-7-7-7-7---|-2-2-2-2-2-2-2---|
D|-5-5-5-5-5-5-5---|-5-5-5-5-5-5-5---|-0-0-0-0-0-0-0---|
A|-5-5-5-5-5-5-5---|-5-5-5-5-5-5-5---|-0-0-0-0-0-0-0---|
D|-5-5-5-5-5-5-5---|-5-5-5-5-5-5-5---|-0-0-0-0-0-0-0---|
    just    to        find    our       place   to 

e|-----------------|-----------------|-----------------|
B|---2-2-2---2-2-2-|---2-2-2---2-2-2-|-----------------|
G|---2-2-2---2-2-2-|---2-2-2---2-2-2-|-7---------------|
D|---2-2-2---2-2-2-|---2-2-2---2-2-2-|-5---------------|
A|---0-0-0---0-0-0-|---0-0-0---0-0-0-|-5---------------|
D|-----------------|-----------------|-5---------------|
   go.....                            (let ring..)

[Tom]

e|-----------------|-----------------|------------------------|-----------------|
B|-----------------|-----------------|------------------------|-----------------|
G|-4-4-4-4-6-6-6-6-|-7-7-7-7-9-9-9-9-|14-14-14-14-14-14-14-14-|-7-7-7-7-5-5-5-5-|
D|-x-x-x-x-x-x-x-x-|-x-x-x-x-x-x-x-x-|-x--x--x--x--x--x--x--x-|-x-x-x-x-x-x-x-x-|
A|-2-2-2-2-4-4-4-4-|-5-5-5-5-7-7-7-7-|12-12-12-12-10 10 10 10-|-9-9-9-9-7-7-7-7-|
D|-----------------|-----------------|------------------------|-----------------|
         Catch me   falling   if you    can,        cut  your  ties and flush them

e|-----------------|-----------------|-----------------|----------------------|
B|-----------------|-----------------|-----------------|----------------------|
G|-4-4-4-4-6-6-6-6-|-7-7-7-7-9-9-9-9-|-9-9-9-9-9-9-9-9-|--11-11-11---11-11-11-|
D|-x-x-x-x-x-x-x-x-|-x-x-x-x-x-x-x-x-|-x-x-x-x-x-x-x-x-|---x--x--x----x--x--x-|
A|-2-2-2-2-4-4-4-4-|-5-5-5-5-7-7-7-7-|-7-7-7-7-7-7-7-7-|---9--9--9----9--9--9-|
D|-----------------|-----------------|-----------------|----------------------|
   down   'cause we're taking back the  reign,   take     control  of  time  and

e|-----------------|-----------------|------------------------|-----------------|
B|-----------------|-----------------|------------------------|-----------------|
G|-4-4-4-4-6-6-6-6-|-7-7-7-7-9-9-9-9-|14-14-14-14-14-14-14-14-|-7-7-7-7-5-5-5-5-|
D|-x-x-x-x-x-x-x-x-|-x-x-x-x-x-x-x-x-|-x--x--x--x--x--x--x--x-|-x-x-x-x-x-x-x-x-|
A|-2-2-2-2-4-4-4-4-|-5-5-5-5-7-7-7-7-|12-12-12-12-10 10 10 10-|-9-9-9-9-7-7-7-7-|
D|-----------------|-----------------|------------------------|-----------------|  
   Emp  -  ty        high -  roads are call   -    ing,         call -  ing,

e|-----------------|-----------------|-----------------|-----------------|
B|-----------------|-----------------|-----------------|-----------------|
G|-4-4-4-4-6-6-6-6-|-7-7-7-7-9-9-9-9-|-9-9-9-9-9-9-9-9(STOP)-11-11-11-11-|
D|-x-x-x-x-x-x-x-x-|-x-x-x-x-x-x-x-x-|-x-x-x-x-x-x-x-x(STOP)--x--x--x--x-|
A|-2-2-2-2-4-4-4-4-|-5-5-5-5-7-7-7-7-|-7-7-7-7-7-7-7-7(STOP)--9--9--9--9-|
D|-----------------|-----------------|-----------------|-----------------|
    My      de -      fen -   ces         slowly         breaking,  'cause

e|-----------------|-----------------|------------------------|-----------------|
B|-----------------|-----------------|------------------------|-----------------|
G|-4-4-4-4-6-6-6-6-|-7-7-7-7-9-9-9-9-|14-14-14-14-14-14-14-14-|-7-7-7-7-5-5-5-5-|
D|-x-x-x-x-x-x-x-x-|-x-x-x-x-x-x-x-x-|-x--x--x--x--x--x--x--x-|-x-x-x-x-x-x-x-x-|
A|-2-2-2-2-4-4-4-4-|-5-5-5-5-7-7-7-7-|12-12-12-12-10 10 10 10-|-9-9-9-9-7-7-7-7-|
D|-----------------|-----------------|------------------------|-----------------| 
    we      were     bought  by         gol   -   den           hand -  shakes,

e|-----------------|-----------------|-----------------|
B|-----------------|-----------------|-----------------|
G|-4-4-4-4-6-6-6-6-|-7-7-7-7-9-9-9-9-|-9-9-9-9-9-9-9-9-|
D|-x-x-x-x-x-x-x-x-|-x-x-x-x-x-x-x-x-|-x-x-x-x-x-x-x-x-|
A|-2-2-2-2-4-4-4-4-|-5-5-5-5-7-7-7-7-|-7-7-7-7-7-7-7-7-|
D|-----------------|-----------------|-----------------|
    just    to        find    our       place   to 

e|---------------------|---------------------|-----------------|
B|---------------------|---------------------|-----------------|
G|-11-11-11----11-11-11|-11-11-11----11-11-11|-7---------------|
D|--x--x--x-----x--x--x|--x--x--x-----x--x--x|-5---------------|
A|--9--9--9-----9--9--9|--9--9--9-----9--9--9|-5---------------|
D|---------------------|---------------------|-5---------------|
    go...                                      (let ring..)
Comments